» » »

Venus En La Arena Tabs (ver.1)

Artists:  A B C D E F G H I J K L M N O P Q R S T U V W X Y Z # 

Venus En La Arena Tabs (ver.1)

La Gusana Ciega
Rating:
5/5 (1 vote)

Hard to play? Try these video lessons and learn fast.
                -------------------------------------------------------------------------------
-------------------------------------------------------------------------------

Tuning: Standard (EADgbe)

Es una excelente canción de la gusana ciega, una de mis favoritas, ahí tienen
mi mail para lo que gusten.

Intro
e|------------------------------|
B|-----5-------5-------5--------|
G|-------5-------5-------5------|
D|------------------------------|
A|-3-3-----3-3-----0-0----------|
E|-------------------------3-3--|

C		Am	G		C-Am-G
No me importa ser tu querubín espacial
C		Am	G		C-Am
si tu quieres ser mi princesa estelar.
G
Puedo ser 
C	  Am	   G		C-Am-G
tu definción de placer animal 
C	  Am-G
tu revelación.

	F-C-G	 C	 F-C-G-C
Puedes ser la dosis perfecta
	F-C-G	 C	 F-C-G-C
puedes ser mi lluvia de estrellas

C	    Am		G	C-Am
Penetrar tu campo gravitacional
G
podemos ser
C	  Am	   G		C-Am-G
la detonacion en un crater lunar.
C	  Am	G		
El interruptor 

F	    G
y nunca estaremos solos
F		G
cuando nos casemos en el mar

e|-------------------------------------------------------------|
B|-------------------------------------------------------------|
G|---------------------------------------------------------/5--|
D|---------------------------------2-2-2-0-2-2-2-0-2-2-2-0-----|
A|-3-3-3-2-3-3-3-2-3-3-3-2-3-3-3-2-----------------------------|
E|-------------------------------------------------------------|

Yo quiero ser tu vaquero espacial tu placer animal
e|----------------------------------------------------------|
B|---------------------------------5-5-5-5-5-5-5-5-5-5-5-5--|
G|-5-5-5-5-5-5-5-5-5-5-5-5-5-5-5-5-4-4-4-4-4-4-4-4-4-4-4-4--|
D|-5-5-5-5-5-5-5-5-5-5-5-5-5-5-5-5-2-2-2-0-2-2-2-0-2-2-2-0--|
A|-3-3-3-2-3-3-3-2-3-3-3-2-3-3-3-2--------------------------|
E|----------------------------------------------------------|

	F-C-G	 C	 F-C-G-C
Puedes ser la dosis perfecta
	F-C-G	 C	 F-C-G-C
puedes ser mi lluvia de estrellas
  F	     C	G    C   F-C-G-C
Mi Venus en la arena
  F	     C	G    C   F-C-G-C
Mi Venus en la arena

C	    Am		G	C-Am-G
Tu constelacion en mi rayo verbal
C	    Am		G	C-Am-G
Eres prisionera en mi nave espacial
C	    Am		G	C-Am-G
puedes ser mi barbarlella personal
C	  Am	G
tu sector prohibido

e|----------------------------------------------------------------|
B|----------------------------------------------------------------|
G|----------------------------------------------------------------|
D|---------------------------------2-2-2-0-2-2-2-0-2-2-2-0-3-2-0--|
A|-3-3-3-2-3-3-3-2-3-3-3-2-3-3-3-2--------------------------------|
E|----------------------------------------------------------------|

Yo quiero ser tu vaquero espacial tu placer animal
e|----------------------------------------------------------|
B|---------------------------------5-5-5-5-5-5-5-5-5-5-5-5--|
G|-5-5-5-5-5-5-5-5-5-5-5-5-5-5-5-5-4-4-4-4-4-4-4-4-4-4-4-4--|
D|-5-5-5-5-5-5-5-5-5-5-5-5-5-5-5-5-2-2-2-0-2-2-2-0-2-2-2-0--|
A|-3-3-3-2-3-3-3-2-3-3-3-2-3-3-3-2--------------------------|
E|----------------------------------------------------------|

	F-C-G	 C	 F-C-G-C
Puedes ser la dosis perfecta
	F-C-G	 C	 F-C-G-C
puedes ser mi lluvia de estrellas
  F	     C	G    C   F-C-G-C
Mi Venus en la arena
  F	     C	G    C   F-C-G-C
Mi Venus en la arena


| /  slide up
| \  slide down
| h  hammer-on
| p  pull-off
| ~  vibrato
| +  harmonic
| x  Mute note
===============================================================================
            
Hard to play? Try these video lessons and learn fast. | Correct




comments powered by Disqus
↑ Back to top | Tablatures and chords are parodies/interpretations of the original songs. You may use it for private study, scholarship, research or language learning purposes only