>
 >
Tornasol Vuelves A Ser

Tornasol Vuelves A Ser Bass Tabs

La Gusana Ciega - Tornasol Vuelves A Ser chords, tabs, tablatures, lyrics

Guitar lessons | Add/correct | Request | Top 50 tabs Artists:  A B C D E F G H I J K L M N O P Q R S T U V W X Y Z 0-9

Tornasol Vuelves A Ser Bass Tabs – La Gusana Ciega

CD, Sheet music, Poster

Do you like Tornasol Vuelves A Ser? Share with your friends now
Bass Tabs
Intro: Despues de los golpes de la bateria entra otra guitarra 
y el bajo. Esta medio cabron encontrarle pero escuchen bien la rola para el tiempo de cada nota.

G--------------------------------------------------
D--------------------------------------------------
A----4h7-4-------------------------4h7-4---4h7-4---
E-5---------4----2---7/9-7-9-7-5-55-------4-------2-

--------------------
--------------------
------------/9-9-9-9
-7s9-7--------------

Verso 1: 

G----------------------------------------------------
D----------------------------------------------------
A----------------------------------------------------
E-5-5--4-4-4--2-2-2--4-4-4-4--5-5-4-4-4--2-2-2-4-4-4-

----------------------------
----------------------------
----------------------------
-4/9-9-4-4-4-4-5-5-7-9-7-5-7

Intro 
Verso 1 

Coro:

G--------------------------------------------------
D--------------------------------------------------
A--------------------------------------------------
E-5-5-5-5-0-0-0-0-2-2-2-2/10-10-10-9-9-10-9-5-5-5-5

-------------------------------------------------------
-------------------------------------------------------
-------------------------------------------------------
-0-0-0-0-2-2-2-2-0-0-0-0-2-4-5-5-5-5-0-0-0-0-2-2-2-2/10

------------------------------------------------------
------------------------------------------------------
------------------------------------------------------
-10-10-10-9-9-10-9-5-5-5-5-0-0-0-0-2-2-2-2-----9-9-9-9

Intro
Verso 1
Coro
y acabado el coro, en vez de pasarse hasta el 16 tocan:

                                ...siente caer de  
G-----------------------------------         parasol
D-----------------------------------
A-----------------------------------
E-0-0-0-0-2-4-5-5-5-5-10--5-5-5-5-10

despues en el bridge, que empieza poquito antes de que diga 
'al sueño intermitente' toquen esto:

G----------------------   
D----------------------
A----------------------
E-5-4-5---5-5-5-4-4-4-4  4 veces y a la quinta:

G-----------------------
D-----------------------
A-----------------------
E-5---------------------  y dejenlo sonar

Coro
Intro
Fin

Diviértanse sacándola solo escuchen bien la rola para ke vean bien los tiempos....





Comments


Popular La Gusana Ciega tabs & chords
Me Puedes Chords
No Me Tientes Chords
Palabras Sin Hablar Chords
Asimetrica Tabs
EstacióN Lunar Tabs
Tornasol 1 Tabs
Tornasol 2 Tabs
La Cura Ukulele
Me Puedes Ukulele
No Me Tientes Ukulele


Song lyrics



↑ Back to top | Tablatures and chords are parodies/interpretations of the original songs. You may use it for private study, scholarship, research or language learning purposes only
© 2014 AZChords.com Contact us | Privacy policy | DMCA | Add/correct tabs | Request tabs | Top 50 tabs