» » »

La Gusana Ciega, InvasióN Estelar Tabs (ver.1)

Artists:  A B C D E F G H I J K L M N O P Q R S T U V W X Y Z # 

InvasióN Estelar Tabs (ver.1)

La Gusana Ciega Tabs
 Rating:
4/5 (4 votes)
InvasióN Estelar lessons Tabs too difficult? Try these video lessons and learn fast
                -=Intro=-
E               F#m                E
Como quisieras verme subido en un árbol
G|-------------------------|]
D|--9h11h9-7---------9-----|]
A|-----------9-7---7---7/--|]
E|---------------9---------|]
E                 F#m            E
dándome vueltas hasta dejarme mareado
G|-------------------------|]
D|--9h11h9-7---------9-----|]
A|-----------9-7---7---7/--|]
E|---------------9---------|]
E                      F#m         E
dices que vienes de un mundo plastificado
G|-------------------------|]
D|--9h11h9-7---------9-----|]
A|-----------9-7---7---7/--|]
E|---------------9---------|]
E                  F#m                 E
donde las sombras brillan en tonos plateados
G|-------------------------|]
D|--9h11h9-7---------9-----|]
A|-----------9-7---7---7/--|]
E|---------------9---------|]
C#m                 F#m       E
Y que en Marte hay vida para ti.
E                 F#m                  E
Bajas del cielo envuelta en un manto dorado
G|-------------------------|]
D|--9h11h9-7---------9-----|]
A|-----------9-7---7---7/--|]
E|---------------9---------|]
E               F#m              E
como si fueras un invasor del espacio
G|-------------------------|]
D|--9h11h9-7---------9-----|]
A|-----------9-7---7---7/--|]
E|---------------9---------|]
E                    F#m            E
contando cuentos de un mundo maravillado
G|-------------------------|]
D|--9h11h9-7---------9-----|]
A|-----------9-7---7---7/--|]
E|---------------9---------|]
E                       F#m       E
por los efectos de un mejoral mejorado
G|-------------------------|]
D|--9h11h9-7---------9-----|]
A|-----------9-7---7---7/--|]
E|---------------9---------|]

-=Coro=-
C#m         G#m C#m              F#m
Yo quiero decir la tierra es un sueño para dormir
e|------------4-----------------------4--------------|]
B|------------5-----------4-----------5--------------|]
G|--6-6---4h6-------------4-6-6---4h6-----------4h6--|]
D|------6-------6-6---4h6-------6-------4-4-4h6------|]
A|------------------6--------------------------------|]
E|---------------------------------------------------|]

C#m          G#m  F#m       A       E
no quiero esperar una invasión estelar
e|------------4------------------------------------------------12^/--|]
B|------------5-----------4------------------------10-12^12-10-------|]
G|--6-6---4h6-------------4-------4-6h7h6-4---9-11-------------------|]
D|------6-------6-6---4h6---4-4h6------------------------------------|]
A|------------------6------------------------------------------------|]
E|-------------------------------------------------------------------|]
E                 F#m                E
Dices que tienes sueños de mundos lejanos
G|-------------------------|]
D|--9h11h9-7---------9-----|]
A|-----------9-7---7---7/--|]
E|---------------9---------|]
E                  F#m                E
llenos de magia y llenos de juegos extraños
G|-------------------------|]
D|--9h11h9-7---------9-----|]
A|-----------9-7---7---7/--|]
E|---------------9---------|]
C#m             F#m          E
y que en Marte hay vida para ti.
E              F#m               E
No necesito buscar un planeta orbitado
G|-------------------------|]
D|--9h11h9-7---------9-----|]
A|-----------9-7---7---7/--|]
E|---------------9---------|]
E                F#m                  E
para sentir que tiene sentido ser alguien
G|-------------------------|]
D|--9h11h9-7---------9-----|]
A|-----------9-7---7---7/--|]
E|---------------9---------|]

-=Coro=-
C#m         G#m C#m                  F#m
Yo quiero decir que la tierra es un sueño para dormir
e|------------4-----------------------4--------------|]
B|------------5-----------4-----------5--------------|]
G|--6-6---4h6-------------4-6-6---4h6-----------4h6--|]
D|------6-------6-6---4h6-------6-------4-4-4h6------|]
A|------------------6--------------------------------|]
E|---------------------------------------------------|]
C#m          G#m  F#m       A       E
no quiero esperar una invasión estelar.
e|------------4------------------------------|]
B|------------5-----------4------------------|]
G|--6-6---4h6-------------4-------4-6h7h6-4--|]
D|------6-------6-6---4h6---4-4h6------------|]
A|------------------6------------------------|]
E|-------------------------------------------|]

-=Solo=- 
  E    F#m    E    F#    E
e|--12~-----------9-------------------------------------------|]
B|-------------5-7^7-5-----5-----5-7/9-7---------------11/9~~-|]
G|-----9~6-4h6---------4h6---4h6-----------------6-7-9~11/9~~-|]
D|-------------------------------------------7h9--------------|]
A|---------------------------------------7h9------------------|]
E|------------------------------------------------------------|]

-=Coro=-
C#m           G#m C#m         F#m
No quiero escapar, no quiero viajar al mundo espacial
e|------------4-----------------------4--------------|]
B|------------5-----------4-----------5--------------|]
G|--6-6---4h6-------------4-6-6---4h6-----------4h6--|]
D|------6-------6-6---4h6-------6-------4-4-4h6------|]
A|------------------6--------------------------------|]
E|---------------------------------------------------|]
C#m          G#m  F#m       A       E
no quiero esperar una invasión estelar
e|------------4------------------------------------------------12^/--|]
B|------------5-----------4------------------------10-12^12-10-------|]
G|--6-6---4h6-------------4-------4-6h7h6-4---9-11-------------------|]
D|------6-------6-6---4h6---4-4h6------------------------------------|]
A|------------------6------------------------------------------------|]
E|-------------------------------------------------------------------|]
C#m         G#m C#m              F#m
Yo quiero decir la tierra es un sueño para dormir
e|------------4-----------------------4--------------|]
B|------------5-----------4-----------5--------------|]
G|--6-6---4h6-------------4-6-6---4h6-----------4h6--|]
D|------6-------6-6---4h6-------6-------4-4-4h6------|]
A|------------------6--------------------------------|]
E|---------------------------------------------------|]
C#m          G#m  F#m       A       E
no quiero esperar una invasión estelar.
e|------------4------------------------------------------------12^/--|]
B|------------5-----------4------------------------10-12^12-10-------|]
G|--6-6---4h6-------------4-------4-6h7h6-4---9-11-------------------|]
D|------6-------6-6---4h6---4-4h6------------------------------------|]
A|------------------6------------------------------------------------|]
E|-------------------------------------------------------------------|]

Tijuana, BC, México    Ramón Guillermo Galáz Rios
            
Submit corrections

comments powered by Disqus
↑ Back to top | La Gusana Ciega Tabs for InvasióN Estelar. Lyrics for acoustic guitar and electric guitar. Tablatures and chords are parodies/interpretations of the original songs. You may use it for private study, scholarship, research or language learning purposes only