>
 >
EstacióN Lunar

EstacióN Lunar Guitar Tabs

La Gusana Ciega - EstacióN Lunar chords, tabs, tablatures, lyrics

Guitar lessons | Add/correct | Request | Top 50 tabs Artists:  A B C D E F G H I J K L M N O P Q R S T U V W X Y Z 0-9

EstacióN Lunar Guitar Tabs – La Gusana Ciega

CD, Sheet music, Poster

Do you like EstacióN Lunar? Share with your friends now
Tabs
-=Intro & Riff 1=-
e|-----------------------------0~~--|]  
B|--0-----3--0-----3--0-----3-------|]         
G|-----0--------0--------0----------|]
D|----------------------------------|]
A|----------------------------------|]
E|----------------------------------|] (w/dist)

-=Riff 2=-				   -=Riff 3=-
    Em                   Em
e|--0--------------------0--|]		   e|-----------------------|]
B|--0--------------------0--|]		   B|-----------------------|]
G|--0--------------------0--|]		   G|-----------------------|]
D|--2--------2-----------2--|]		   D|--3h4h3h4h3h4h3h4h3h4--|]
A|--2----0h2----0h2------2--|]		   A|-----------------------|]
E|--0--0------0-------0--0--|] (clean)     E|-----------------------|] (w/dist)

-=Intro / Riff 2 x2=-

-=Riff 1=-					-=Riff 2=-
Em           G               D         Em 
Cuelga tus alhajas sobre un santo de metal 
-=Riff 1=-					-=Riff 2=-
Em           G            D           Em 
todos tus milagros en la vela de cristal 
-=Riff 3=-			=-Riff 2=-
Em    G       D          Em 
pide por que pueda regresar 
-=Riff 3=-			-=Riff 2=-
Em     G      D          Em 
de la transmisión irregular 

-=Chorus=-
-=w/distortion=-	-=ending the distortion part the riff=-
e|-----------------|]	e|---------------------|]
B|-----------------|]	B|---------------------|]
G|--5-----7--------|]	G|---------------------|]
D|--5-----7-----2--|]	D|--------2------------|]
A|--3-----5-----2--|]	A|----0h2-----0h2------|]
E|--------------0--|]	E|--0-------0-------0--|] (w/dist)
    C5    D5    Em5 
   Estación lunar 		
e|------------------------3-5h3-0--|]	
B|---------------6-66-6---5--------|]	
G|--5---7--------7-77-7---4--------|]	
D|--5---7--------------------------|]	
A|--3---5--------------------------|]
E|---------------------------------|]
    C5  D5       G         Em 
   girasol no me dejes olvidar 
e|---------------0--|]
B|---------------0--|]
G|-55555--77777--0--|]
D|-55555--77777--2--|]
A|-33333--55555--2--|]
E|---------------0--|]
   C5     D5     Em 	-=Riff 2=-
   no quiero cambiar 

-=Verse 2=-
-=Riff 1=-				   -=Riff 2=-
 Em 
Fibras luminosas de tu vientre al corazón 
-=Riff 1=-				   -=Riff 2=-
Em              G            D            Em 
viajas sobre cables enroscados por tu voz 
-=Riff 3=-		-=Riff 2=-
Em     G    D        Em 
comunicación artificial 
-=Riff 3=-		   -=Riff 2=-
Em     G    D        Em 
convertida en alma digital 

-=Chorus=-
-=w/distortion=-	-=ending the distortion part the riff=-
e|-----------------|]	e|---------------------|]
B|-----------------|]	B|---------------------|]
G|--5-----7--------|]	G|---------------------|]
D|--5-----7-----2--|]	D|--------2------------|]
A|--3-----5-----2--|]	A|----0h2-----0h2------|]
E|--------------0--|]	E|--0-------0-------0--|] (w/dist)
    C5    D5    Em5 
   Estación lunar 		
e|------------------------3-5h3-0--|]	
B|---------------6-66-6---5--------|]	
G|--5---7--------7-77-7---4--------|]	
D|--5---7--------------------------|]	
A|--3---5--------------------------|]
E|---------------------------------|]
    C5  D5       G         Em 
   girasol no me dejes olvidar 
e|---------------0--|]
B|---------------0--|]
G|-55555--77777--0--|]
D|-55555--77777--2--|]
A|-33333--55555--2--|]
E|---------------0--|]
   C5     D5     Em 	
   no quiero cambiar 

  -=Solo=- (between the riff 2)
e|-----------------------|]	
B|--7h8p-—7h8p---5h6-5~--|]  
G|-----------------------|]
D|-----------------------|]
A|-----------------------|]
E|-----------------------|] p=pull up

-=Chorus=-
e|------------------------3-5h3-0--|]	
B|---------------6-66-6---5--------|]	
G|--5---7--------7-77-7---4--------|]	
D|--5---7--------------------------|]	
A|--3---5--------------------------|]
E|---------------------------------|]
    C5  D5       G         Em 
   girasol no me dejes olvidar 
e|---------------0--|]
B|---------------0--|]
G|-55555--77777--0--|]
D|-55555--77777--2--|]
A|-33333--55555--2--|]
E|---------------0--|]
   C5     D5     Em 	
   no quiero cambiar  -=Riff 2=-

-=This part w/Palm mute=-	      -=Play complete this note & Riff 2=-
Em                  G         D     Em  
Rompes entre frases no te puedo ...
Riff 1:					     Riff 2:	
 Em            G             D          Em
amor desde la luna es tan difícil descifrar 

-=w/distortion=-	-=ending the distortion part the riff=-
e|-----------------|]	e|---------------------|]
B|-----------------|]	B|---------------------|]
G|--5-----7--------|]	G|---------------------|]
D|--5-----7-----2--|]	D|--------2------------|]
A|--3-----5-----2--|]	A|----0h2-----0h2------|]
E|--------------0--|]	E|--0-------0-------0--|] (w/dist)
    C5    D5    Em5 
   Estación lunar 		
e|------------------------3-5h3-0--|]	
B|---------------6-66-6---5--------|]	
G|--5---7--------7-77-7---4--------|]	
D|--5---7--------------------------|]	
A|--3---5--------------------------|]
E|---------------------------------|]
    C5  D5       G         Em 
   girasol no me dejes olvidar 
e|--------------------------3-5h3-0--|]	
B|-----------------6-66-6---5--------|]	
G|--5555-7--777----7-77-7---4--------|]	
D|--5555-7--777----------------------|]	
A|--3333-5--555----------------------|]
E|-----------------------------------|]
    C5   D5        G        Em 
   el color de tus ojos es verdad
e|--------------------------3-5h3-0--|]	
B|-----------------6-66-6---5--------|]	
G|--5-5~-7--77-----7-77-7---4--------|]	
D|--5-5~-7--77-----------------------|]	
A|--3-3~-5--55-----------------------|]
E|-----------------------------------|]
    C5   D5        G        Em 
   esta vez no me dejes olvidar
e|---------------0--|]
B|---------------0--|]
G|-55555--77777--0--|]
D|-55555--77777--2--|]
A|-33333--55555--2--|]
E|---------------0--|]
   C5     D5     Em 	-=Riff 2=-
   no quiero cambiar 

-=Ending Em & Riff 2=- (x2)





Comments


Popular La Gusana Ciega tabs & chords
727 Chords
Me Puedes Chords
No Me Tientes Chords
Tornasol Chords
No Puedo Verte Tabs
Tornasol 1 Tabs
Venus En La Arena Tabs
No Me Tientes Ukulele
No Puedo Verte Ukulele
Palabras Sin Hablar Ukulele


Song lyrics



↑ Back to top | Tablatures and chords are parodies/interpretations of the original songs. You may use it for private study, scholarship, research or language learning purposes only
© 2014 AZChords.com Contact us | Privacy policy | DMCA | Add/correct tabs | Request tabs | Top 50 tabs