» » »

La Gusana Ciega, 727 Chords (ver.1)

Artists:  A B C D E F G H I J K L M N O P Q R S T U V W X Y Z # 

727 Chords (ver.1)

La Gusana Ciega Tabs
 Rating:
4/5 (4 votes)
727 lessons Tabs too difficult? Try these video lessons and learn fast
                E-------------------------------------|
B----------------------9--------------|
G-------------------8------8--9--8----|
D---------------9------------------9--|
A-------------------------------------|
E-------------------------------------|

B      F#      E         F#-B
NA NA NA NA NA  NA NA           X2

B           F#              E        F#          B
PERCIBO EL COLOR DE LA SECUENCIA QUE PERMITE DESPEGAR
B        F#            E         F#
DIFUMINADO CON LA REALIDAD
B         F#        E         F#-B
UN DULCE SUEÑOS ME HA TERMINAR
   B                     E            F#      B   INTRO
ES BUENO LLORAR ES BUENO ESCAPAR  ESPERO NO RECORDAR

ABORDO DE UN 727 ME TRANSPORTO A DONDE ESTAS
DEPOSITABA EN UNA EXTREMIDAD
ESPERAS EL FLUJO TEMPORAL MIENTRAS ACABO DE CANTAR
CALEIDOSCOPIOS EN ALGUN LUGAR

B                           E
NO PUEDES PENSAR QUE QUIERO MATAR
             F#         B
CUANDO YO PUEDA VOLAR

B          A    B            A
ENCIMA DE TODO ENCIMA DEL UNIVERSO    X2

D-E-B
 
SONARON LAS 727 NO ME PUEDO LEVANTAR
EL ECO DEL PASADO NO SE VA
DULCES SUEÑOS ME HA TERMINAR

B                     E            F#
ES BUENO LLORAR ES BUENO DEJAR QUE BAJE LA MAREA
E          A         E      F#      B
PASAR LA TEMPESTAD PARA VOLVER A VOLAR

B          A    B            A
ENCIMA DE TODO ENCIMA DEL UNIVERSO
B          A    B            A
ENCIMA DE TODO ENCIMA DEL UNIVERSO
B          A    B            A
ENCIMA DE TODO ENCIMA DEL UNIVERSO

D-E-B

B         D          A
HAY ALGO AHI QUE NO SE VE
B          D         A
PRESENTIMIENTOS EN LA PIEL
B          D          A
DE LO QUE PUEDE SUCEDER
B         D     D-E     D-E    B
VOLANDO HOY

SOLO 2
e|--------------------------------------------------------------------------|
B|---12--11-10--9-----------------------------------------------------------|
G|-11--10--9---9-8~--8-9-10-10~-10-9--2h3h4-2h3h4-2h3h4-4-6-8--8--8-8-8--8--|
D|-------------------------------------------------------------9-9-9----9-9-|
A|--------------------------------------------------------------------------|
E|--------------------------------------------------------------------------|

e|------------------------------------------|
B|----------------------------------14---19-|
G|-9-9-11-13-14/15/16-16-15-14-14-15--15----|
D|------------------------------------------|
A|------------------------------------------|
E|------------------------------------------|

B          A    B            A
ENCIMA DE TODO ENCIMA DEL UNIVERSO
B          A    B            A
ENCIMA DE TODO ENCIMA DEL UNIVERSO
B          A    B            A     D-E    D-E  D-E  B.
ENCIMA DE TODO ENCIMA DEL UNIVERSO
            
Submit corrections

comments powered by Disqus
↑ Back to top | La Gusana Ciega Chords for 727. Lyrics for acoustic guitar and electric guitar. Tablatures and chords are parodies/interpretations of the original songs. You may use it for private study, scholarship, research or language learning purposes only