» » »

La Guns, Rip And Tear Bass tabs (ver.1)

Artists:  A B C D E F G H I J K L M N O P Q R S T U V W X Y Z # 

Rip And Tear Bass tabs (ver.1)

La Guns Tabs
Rating:
5/5 (1 vote)
Rip And Tear lessons Tabs too difficult? Try these video lessons and learn fast
                Album:Cocked & Loaded
Bassist:Kelly Nickels

This is one of my all time favorite tunes. This tab is correct.

Key:
x = times a number

*Guitar Intro*

Intro/Chorus
G:-----------------------------------|-----------------------------------|
D:-----------------------------------|-----------------------------------|
A:------------------4--22-4--44---2-1|------------------4--22-4--44---2-1|
E:4--22-4--4-2-4-2--------------2----|4--22-4--4-2-4-2--------------2----|

Verse
G:---------------------------------------|
D:---------------------------------------|
A:-----4x16------4x16------4x16------4x16|
E:4x16------4x16------4x16------4x16-----|

Chorus

Verse

Chorus

Solo
G:------------------------------------------------|
D:------------------------------------------------|
A:----------2-4--4-4--2-1------------2-4--4-4--2-1|
E:4--4-4--4---------------4--4-4--4---------------|

G:-----4-6x7-4-666-4-6-8-6-4------4-666-4-666-4-666-4-6-8-6-4|
D:6x15-----------------------6x15----------------------------|
A:-----------------------------------------------------------|
E:-----------------------------------------------------------|

Chorus

Bridge = Verse

Chorus

Chorus

Chorus

Chorus

End is the the second part of the solo, but you gradually speed up.

That's it. Excellent tune, kicks so much ass. I already put it in order, so 
            
Submit corrections

comments powered by Disqus
↑ Back to top | La Guns Bass for Rip And Tear. Lyrics for acoustic guitar and electric guitar. Tablatures and chords are parodies/interpretations of the original songs. You may use it for private study, scholarship, research or language learning purposes only