>
 >
Revolution

Revolution Bass Tabs

La Guns - Revolution chords, tabs, tablatures, lyrics

Guitar lessons | Add/correct | Request | Top 50 tabs Artists:  A B C D E F G H I J K L M N O P Q R S T U V W X Y Z 0-9

Revolution Bass Tabs – La Guns

CD, Sheet music, Poster

Do you like Revolution? Share with your friends now
Bass Tabs

REVOLUTION (Bassline)





 

 

Gtr I (Eb Ab Db Gb) - 'Staff'


  Q=150
 4/4
  Gtr I
  E E E E Q  Q    E E E E Q  Q    E E E E Q  Q    E E E E E E E E
|---------------|---------------|---------------|-----------------|
|-2-4-4-4-4--4--|-2-4-4-4-4--4--|-2-4-4-4-4--4--|-4-4-4-4-2-------|
|---------------|---------------|---------------|-----------4-2---|
|---------------|---------------|---------------|---------------0-|


  E E E E +E  E E E   E E E E +E  E E E
|-------------------|-------------------|
|-------------------|-------------------|
|-------------------|-5-5-4-5-(5)-5-5-4-|
|-2-2-0-2-(2)-0-2-4-|-------------------|


  E E E E +E  E E S S   E E E E E E E E
|---------------------|-----------------|
|---------------------|-----------------|
|-----------------7-9-|-7-7-7-7-7-9-7---|
|-5-5-4-5-(5)-7-9-----|---------------0-|


  E E E E +E  E E E   E E E E +E  E E E
|-------------------|-------------------|
|-------------------|-------------------|
|-------------------|-5-5-4-5-(5)-5-4-5-|
|-2-2-0-2-(2)-0-2-4-|-------------------|


  Q  E E +S  S E Q    E E +S  S E E E Q
|-------------------|---------------------|
|-------------------|---------------------|
|-7--7-----------7--|-7-------------------|
|------0-(0)---0----|---0-(0)---0-0-0-5---|


  Q=145
  E E E E E E E E   E E E E E E E E   E E E E E E E E   E E E E E E E E
|-----------------|-----------------|-----------------|------------------|
|-4-4-4-4-4-4-4---|-----------------|-----------------|------------------|
|---------------4-|-5-5-5-5-5-5-5---|-----------------|---------------2--|
|-----------------|---------------5-|-7-7-7-7-7-7-7-7-|-7-7-7-7-7-5-2----|


  Q=145
  E E E E E E E E   E E E E E E E E   E E E E E E E E   E E E E E E E E
|-----------------|-----------------|-----------------|------------------|
|-4-4-4-4-4-4-4---|-----------------|-----------------|------------------|
|---------------4-|-5-5-5-5-5-5-5---|-----------------|------------------|
|-----------------|---------------5-|-7-7-7-7-7-7-7-7-|-7-7-7-7-7-0-2-0--|


  E E E E E E E E   E E E E E E E E   E E E E E E E E   E E E E E E E E
|-----------------|-----------------|-----------------|------------------|
|-----------------|-----------------|-----------------|------------------|
|-----------------|-5-5-5-5-5-5-5-4-|-2-2-2-2-2-2-2-2-|-2-2-2-2-2-0------|
|-2-2-2-2-2-4-5-7-|-----------------|-----------------|-------------2-0--|


  Q  E E +E  E E E   E E E E +Q   E E   E E E E +E  E E E   E E E E E E E E
|------------------|------------------|-------------------|------------------|
|------------------|------------------|-------------------|-9-9-9-9-7--------|
|------------------|-5-5-4-5-(5)--5---|-----------------7-|-----------9-7----|
|-2--0-2-(2)-4-5-7-|----------------5-|-7-7-5-7-(7)-7-7---|---------------0--|


  E E E E +E  E E E   E E E E +Q   E E   E E E E E E E S S   E E E E E E E E
|-------------------|------------------|-------------------|-----------------|
|-------------------|------------------|-------------------|-----------------|
|-------------------|-5-5-4-5-(5)--5-4-|---------------7-9-|-7-7-7-7-7-9-7---|
|-2-2-0-2-(2)-4-5-7-|------------------|-5-5-5-5-5-7-9-----|---------------0-|


  E E E E +E  E E E   E E E E E E E E
|-------------------|-----------------|
|-------------------|-----------------|
|-------------------|-5-5-5-5-5-4-2-0-|
|-2-2-0-2-(2)-4-5-7-|-----------------|


  Q  E E +S  S E Q    E E +S  S E E E Q
|-------------------|---------------------|
|-2--2-----------2--|-2-------------------|
|-------------------|-----------------0---|
|------0-(0)---0----|---0-(0)---0-0-0-----|


  E E E E E E E E   E E E E E E E E   E E E E E E E E   E E E E E E E E
|-----------------|-----------------|-----------------|------------------|
|-4-4-4-4-4-4-4-4-|-----------------|-----------------|------------------|
|-----------------|-5-5-5-5-5-5-5-5-|-----------------|---------------2--|
|-----------------|-----------------|-7-7-7-7-7-7-7-7-|-7-7-7-7-7-5-2----|


  E E E E E E E E   E E E E E E E E   E E E E E E E E   E E E E E E E E
|-----------------|-----------------|-----------------|------------------|
|-4-4-4-4-4-4-4-4-|-----------------|-----------------|------------------|
|-----------------|-5-5-5-5-5-5-5-5-|-----------------|------------------|
|-----------------|-----------------|-7-7-7-7-7-7-7-7-|-7-7-7-5-7-5-2-0--|


  E E E E E E E E   E E E E E E E E   E E E E E E E E   E E E E E E E E
|-----------------|-----------------|-----------------|------------------|
|-----------------|-----------------|-----------------|------------------|
|-----------------|-5-5-5-5-5-5-5---|-----------------|------------------|
|-2-2-2-2-2-4-5-7-|---------------5-|-7-7-7-7-7-7-7-7-|-7-7-7-7-7-5-4-0--|


  Q  E E +E  E E E   Q  E E +E  E E E   Q  E E +E  E Q    E E E E E E E E
|------------------|------------------|-----------------|------------------|
|------------------|------------------|-----------------|-9-9-9-9-7--------|
|------------------|-5--4-5-(5)-5-5---|-----------------|-----------9-7----|
|-2--0-2-(2)-4-5-7-|----------------5-|-7--5-7-(7)-5-7--|---------------0--|


  E E E E +E  E E E   E E E E +Q   E E   E E E E E E E S S   E E E E E E E E
|-------------------|------------------|-------------------|-----------------|
|-------------------|------------------|-------------------|-----------------|
|-------------------|-5-5-4-5-(5)--5-4-|---------------7-9-|-7-7-7-7-7-9-7---|
|-2-2-0-2-(2)-4-5-7-|------------------|-5-5-4-5-5-7-9-----|---------------0-|


  E E E E +E  E E E   E E E E E E E E
|-------------------|-----------------|
|-------------------|-----------------|
|-------------------|-5-5-5-5-5-4-2-0-|
|-2-2-0-2-(2)-4-5-7-|-----------------|


  Q  E E +S  S E E E   E E +S  S E E E E E
|--------------------|----------------------|
|-2--2-----------2-2-|-2-----------2-2------|
|--------------------|----------------------|
|------0-(0)---0-----|---0-(0)---0-----0-0--|


  E E E E +E  E E E   E E E E +Q   E E   E E E E E E E S S   E E E E E E E E
|-------------------|------------------|-------------------|-----------------|
|-------------------|------------------|-------------------|-----------------|
|-------------------|-5-5-4-5-(5)--5-4-|---------------7-9-|-7-7-7-7-7-9-7---|
|-2-2-0-2-(2)-4-5-7-|------------------|-5-5-4-5-5-7-9-----|---------------0-|


  E E E E +E  E E E   E E E E E E E E   Q  E E +S  S E Q    E E +S  S E Q  Q
|-------------------|-----------------|-------------------|--------------------|
|-------------------|-----------------|-2--2-----------2--|-2-----------2------|
|-------------------|-5-5-5-5-5-4-2-0-|-------------------|----------------2---|
|-2-2-0-2-(2)-4-5-7-|-----------------|------0-(0)---0----|---0-(0)---0--------|


  E E E E E E E E   E E E E E E E E   E E E E E E E E   E E E E E E E E
|-----------------|-----------------|-----------------|------------------|
|-----------------|-----------------|-----------------|------------------|
|-4-4-4-4-4-4-4-4-|-5-5-5-5-5-5-5-5-|-4-4-4-4-4-4-4-4-|-2-2-2-2-2-2-2-2--|
|-----------------|-----------------|-----------------|------------------|


  E E E E E E E E   E E E E E E E E   E E E E E E E E   E E E E E E E E
|-----------------|-----------------|-----------------|------------------|
|-----------------|-----------------|-----------------|------------------|
|-4-4-4-4-4-4-4-4-|-5-5-5-5-5-5-5-5-|-----------------|------------------|
|-----------------|-----------------|-4-4-4-4-4-4-4-4-|-3-3-3-3-3-3-3-3--|


  E E E E E E E E   E E E E E E E E   E E E E E E E E   E E E E E E E E
|-----------------|-----------------|-----------------|------------------|
|-----------------|-------------0-2-|-0-0-0-0-0-2-0---|------------------|
|-2-2-2-2-2-2-4-5-|---------0-2-----|---------------2-|-0-0-0-0-0-0------|
|-----------------|-3-3-3-3---------|-----------------|-------------3-0--|


  E E E E E E E E   E E E E E E E E   E E E E E E E E   E E E E E E E E
|-----------------|-----------------|-----------------|------------------|
|-----------------|-------------0-2-|-0-0-0-0-0-2-0---|------------------|
|-2-2-2-2-2-2-----|---------0-2-----|---------------2-|-0-0-0-0-0--------|
|-------------0-2-|-3-3-3-3---------|-----------------|-----------0-4-5--|


  E E E E E E E  E   E E E E E E E E   E E E E E E E E   E E E E E E E E
|------------------|-----------------|-----------------|------------------|
|------------------|-------------0-2-|-0-0-0-0-0-2-0---|------------------|
|------------------|---------0-2-----|---------------2-|-0-0-0-0-0-0------|
|-7-7-7-7-7-7-9-10-|-3-3-3-3---------|-----------------|-------------3-0--|


  E E E E E E E E   E E E E E E E E   E E E E +E  E E E   E E +E  E E E E E
|-----------------|-----------------|-------------------|--------------------|
|-----------------|-------------0-2-|-------------------|--------------------|
|-2-2-2-2-2-2-----|---------0-2-----|-0-0-0-0-(0)-0-0-0-|-0-0-(0)-0-0-2-0----|
|-------------0-2-|-3-3-3-3---------|-------------------|-----------------0--|


  E E E E E E E E   E E E E E E E E   E E E E E E E E   E E E E E E E E
|-----------------|-----------------|-----------------|------------------|
|-----------------|-0-0-0-0-0-0-0---|-----------------|------------------|
|-------------0-2-|---------------0-|-2-2-2-2-2-2-2-2-|-2-2-2-2-2-0------|
|-2-2-2-2-2-2-----|-----------------|-----------------|-------------2-0--|


  E E E E E E E E   E E E E E E E E   E E E E E E E E   E E E E E E E E
|-----------------|-----------------|-----------------|-------2-4-2------|
|-----------------|-0-0-0-0-0-0-0---|-----------------|-------------4-2--|
|-------------0-2-|---------------0-|-2-2-2-2-2-2-2-2-|-2-2-2------------|
|-2-2-2-2-2-2-----|-----------------|-----------------|------------------|


  E E E E E E E E   E E E E E E E E   E E E E E E E E   E E E E E E E E
|-----------------|-----------------|-----------------|------------------|
|-----------------|-----------------|-----------------|------------------|
|-----------0-2-4-|-5-5-5-5-5-5-5---|-----------------|------------------|
|-2-2-2-2-2-------|---------------5-|-7-7-7-7-7-7-7-7-|-7-7-7-7-7-7-7-0--|


  Q  E E +E  E E E   E E E E +E  E E E   E E E E +E  E E E   E E E E E E E E
|------------------|-------------------|-------------------|-4-4-2-2----------|
|------------------|-------------------|-------------------|---------4-4-2----|
|------------------|-5-5-4-5-(5)-5-5---|-------------------|------------------|
|-2--0-2-(2)-4-5-7-|-----------------5-|-7-7-5-7-(7)-5-7-5-|---------------0--|


  E E E E +E  E E E   E E E E +E  E E E   E E E E E E E E   E E E E E E E E
|-------------------|-------------------|-----------------|------------------|
|-------------------|-------------------|-------------2-4-|-2-2-2-2-2-4-2----|
|-------------------|-5-5-4-5-(5)-5-4-2-|-0-0-0-0-2-4-----|------------------|
|-2-2-0-2-(2)-4-5-7-|-------------------|-----------------|---------------0--|


  E E E E +E  E E E   E E E E +E  E E E
|-------------------|-------------------|
|-------------------|-------------------|
|-------------------|-5-5-4-5-(5)-4-2-0-|
|-2-2-0-2-(2)-4-5-7-|-------------------|


  Q  E E +S  S E Q    E E +S  S E E E E E
|-------------------|----------------------|
|-2--2-----------2--|-2-----------2-4-2----|
|-------------------|----------------------|
|------0-(0)---0----|---0-(0)---0-------0--|


  E E E E +E  E E E   E E E E +E  E E E   E E E E E E E E   E E E E E E E E
|-------------------|-------------------|-----------------|------------------|
|-------------------|-------------------|-------------2-4-|-2-2-2-2-2-4-2----|
|-------------------|-5-5-4-5-(5)-5-4-2-|-0-0-0-0-2-4-----|------------------|
|-2-2-0-2-(2)-4-5-7-|-------------------|-----------------|---------------0--|


  E E E E +E  E E E   E E E E +E  E E E
|-------------------|-------------------|
|-------------------|-------------------|
|-------------------|-5-5-4-5-(5)-4-2-0-|
|-2-2-0-2-(2)-4-5-7-|-------------------|


  Q  E E +S  S E Q    E E +S  S E Q  Q
|-------------------|--------------------*|
|-2--2-----------2--|-2-----------2------*|
|-------------------|--------------------*|
|------0-(0)---0----|---0-(0)---0----0---*|




--------------------------------------------------------------------------------


Duration Legend
---------------
W - whole; H - half; Q - quarter; E - 8th; S - 16th; T - 32nd; X - 64th; a - acciaccatura
+ - note tied to previous; . - note dotted; .. - note double dotted
Uncapitalized letters represent notes that are staccato (1/2 duration)
Irregular groupings are notated above the duration line
Duration letters will always appear directly above the note/fret number it represents the
duration for.  Duration letters with no fret number below them represent rests.  Multi-
bar rests are notated in the form Wxn, where n is the number of bars to rest for.  Low
melody durations appear below the staff

Tablature Legend
----------------
 h   - hammer-on
 p   - pull-off
 b   - bend
 pb  - pre-bend
 r   - bend release (if no number after the r, then release immediately)
 /\  - slide into or out of (from/to "nowhere")
 s   - legato slide
 S   - shift slide
 - natural harmonic
[n]  - artificial harmonic
n(n) - tapped harmonic
 ~   - vibrato
 tr  - trill
 T   - tap
 TP  - trem. picking
 PM  - palm muting
\n/  - tremolo bar dip; n = amount to dip
 \n  - tremolo bar down
 n/  - tremolo bar up
/n\  - tremolo bar inverted dip
 =   - hold bend; also acts as connecting device for hammers/pulls
 <> - volume swell (louder/softer)
 x   - on rhythm slash represents muted slash
 o   - on rhythm slash represents single note slash

Misc Legend
-----------
 |  - bar
||  - double bar
||o - repeat start
o|| - repeat end
*|  - double bar (ending)
 :  - bar (freetime)
 $  - Segno
 &  - Coda
Tempo markers -  = BPM(8/16=s8/s16), where s8 = swing 8ths, s16 = swing 16ths



--------------------------------------------------------------------------------





Comments


Popular La Guns tabs & chords
Electric Gypsy Bass Tabs
I Found You Chords
Never Enough Chords
The Ballad Of Jayne Chords
The Ballad Of Jayne 1 Chords
Sex Action Tabs
Skin Intro Tabs
The Ballad Of Jayne Tabs
The Ballad Of Jayne 2 Tabs
The Ballad Of Jayne Intro Tabs


Song lyrics



↑ Back to top | Tablatures and chords are parodies/interpretations of the original songs. You may use it for private study, scholarship, research or language learning purposes only
© 2014 AZChords.com Contact us | Privacy policy | DMCA | Add/correct tabs | Request tabs | Top 50 tabs