» » »

La Guns, One More Reason Bass tabs (ver.2)

Artists:  A B C D E F G H I J K L M N O P Q R S T U V W X Y Z # 

One More Reason Bass tabs (ver.2)

La Guns Tabs
 Rating:
4/5 (4 votes)
One More Reason lessons Tabs too difficult? Try these video lessons and learn fast
                Album:L.A. Guns
Bassist:Kelly Nickels

This is an awesome song. I saw them play it live and it rocked.

Key:
* = let it ring
/ = slide up
h = hammer on

Intro
G:-------------------------------------------------------|
D:---5h7----7h5----5h7----7h5----5h7----7h5----5h7----7h5|
A:00-----00-----00-----00-----00-----00-----00-----00----|
E:-------------------------------------------------------|

G:-------------------------------------------------------|
D:---5h7----7h5----5h7----7h5----5h7----7h5----5h7----7h5|
A:00-----00-----00-----00-----00-----00-----00-----00----|
E:-------------------------------------------------------|

G:-------------------------------------------------------|
D:---5h7----7h5----5h7----7h5----5h7----7h5----5h7----7h5|
A:00-----00-----00-----00-----00-----00-----00-----00----|
E:-------------------------------------------------------|

G:----------------------5*|------------------------|----------------------5*|
D:---5h7----7h5----5h7----|---5h7----7h5----5h7----|---5h7----7h5----5h7----|
A:00-----00-----00--------|00-----00-----00------3*|00-----00-----00--------|
E:------------------------|------------------------|------------------------|

G:---------------------5--|
D:---5h7----7h5----5h7---5|
A:00-----00-----00--------|
E:------------------------|

Verse
G:-------------5--|-------------5--|-------------5--|-------------5--|
D:---------------5|---------------5|---------------5|---------------5|
A:000000000000----|000000000000----|000000000000----|000000000000----|
E:----------------|----------------|----------------|----------------|

Chorus
G:----------------|----------------------------------------|
D:----------------|---------------------7-----7-----7-----7|
A:-------------3--|------------------00----00----00----00--|
E:111111111111---3|11111111-33333333-----------------------|

G:----------------------------------------|
D:---------------------7-----7-----7-----7|
A:------------------00----00----00----00--|
E:11111111-33333333-----------------------|

After Chorus
G:----------------------5*|---------------------5--|
D:---5h7----7h5----5h7----|---5h7----7h5----5h7---5|
A:00-----00-----00--------|00-----00-----00--------|
E:------------------------|------------------------|

Verse

Chorus

For the bridge, you can either break, or play something like this the whole 
time.
G:------|
D:---5h7|
A:00----|
E:------|

Solo
G:---7h9----7h9----7h9----7h9----9h7----9h7----9h7----9h7----7h9----7h9----7h9----7h9|
D:-----------------------------------------------------------------------------------|
A:77-----77-----77-----77-----77-----77-----77-----77-----77-----77-----77-----77----|
E:-----------------------------------------------------------------------------------|

G:---9h7----9h7----9h7----9h7|
D:---------------------------|
A:77-----77-----77-----77----|
E:---------------------------|

After Solo
G:----------------------5*|---------------------5--|
D:---5h7----7h5----5h7----|---5h7----7h5----5h7---5|
A:00-----00-----00--------|00-----00-----00--------|
E:------------------------|------------------------|

Verse

Last Chorus
G:----------------|----------------------------------------|
D:----------------|---------------------7-----7-----7-----7|
A:-------------3--|------------------00----00----00----00--|
E:111111111111---3|11111111-33333333-----------------------|

G:----------------------------------------|----------------------------------------|
D:---------------------7-----7-----7-----7|---------------------7-----7-----7-----7|
A:------------------00----00----00----00--|------------------00----00----00----00--|
E:11111111-33333333-----------------------|11111111-33333333-----------------------|

G:-----------------------------------------------|
D:-------------------17-15----17-15----17-19*----|
A:-------3-----------------17-------17-----------|
E:1*--3*---3*-5*/17*----------------------------5|

That's it. Really kickass song, with an awesome bass part. I already put 
            
Submit corrections

comments powered by Disqus
↑ Back to top | La Guns Bass for One More Reason. Lyrics for acoustic guitar and electric guitar. Tablatures and chords are parodies/interpretations of the original songs. You may use it for private study, scholarship, research or language learning purposes only