» » »

La Guns, No Mercy Bass tabs (ver.2)

Artists:  A B C D E F G H I J K L M N O P Q R S T U V W X Y Z # 

No Mercy Bass tabs (ver.2)

La Guns Tabs
Rating:
0/5 (0 votes)
No Mercy lessons Tabs too difficult? Try these video lessons and learn fast
                Album:L.A. Guns
Bassist:Kelly Nickels

This is an aweosme tune to start off this awesome album.

Key:
x = times a number

Intro
G:------------------------------|
D:------------7-5---------------|
A:----------------7-5-3-5-3-----|
E:5-5-5-5-5-5---------------5x32|

Verse 1
G:----|
D:----|
A:----|
E:5x64|

Chorus 1
G:------------|------------|--------------------------|----|
D:------------|------------|-------------7-5----------|----|
A:3x8-5x8-----|3x8-5x8-----|3x8-5x8-7x24-----7-5-3-5-3|----|
E:--------5x16|--------5x16|--------------------------|5x32|

Verse 1

Verse 2
G:---------|
D:---------|
A:---------|
E:0-32-5x32|

Chorus 1

Solo
G:--|--|-------------------------|-----------------------------------------------|
D:--|--|-------------------------|--------------------7-5------------------------|
A:--|--|2-3-4-5x64------7x32-5x32|------------------------7-5-3-5-3-7-5----------|
E:55|55|-----------5x32----------|5-55-5-55-5-55-5-55-------------------7-5-3-5-3|

G:------------------------------|
D:------------------------------|
A:------------------------------|
E:5-5--5--5-5--5--5-5--5--5-5--5|

Verse 1

Chorus 2/End
G:------------|------------|------------|-----------------------------------|
D:------------|------------|------------|-------------7-5-------------------|
A:3x8-5x8-----|3x8-5x8-----|3x8-5x8-----|3x8-5x8-7x24-----7-5-3-5-3---------|
E:--------5x16|--------5x16|--------5x16|---------------------------5-5--5-5|

That's it. ROCK N ROLL! I love this song, and this tab is deffinately correct. 
            
Submit corrections

comments powered by Disqus
↑ Back to top | La Guns Bass for No Mercy. Lyrics for acoustic guitar and electric guitar. Tablatures and chords are parodies/interpretations of the original songs. You may use it for private study, scholarship, research or language learning purposes only