>
 >
Never Enough

Never Enough Guitar Tabs

La Guns - Never Enough chords, tabs, tablatures, lyrics

Guitar lessons | Add/correct | Request | Top 50 tabs Artists:  A B C D E F G H I J K L M N O P Q R S T U V W X Y Z 0-9

Never Enough Guitar Tabs – La Guns

CD, Sheet music, Poster

Do you like Never Enough? Share with your friends now
ChordsTabsUkulele
L.A. Guns - Never Enough

Standard tuning. Im not 100% about this song but it sounds close to me when you
play along with the track. see what you think

Intro

E---------------|
B---------------|
G---------------| play 8 times
D---6-8-4-4-----|
A---4-6-2-2-----|
E-4---------0h2-|

Intro (solo)

E------------------|----------------------------|-----|
B------------------|-17-15-17-15-17-15-17-15-17-|-17b-|
G------------------|----------------------------|-----|
D------------------|----------------------------|-----|
A--5-3-5-3-5-3-0-3-|----------------------------|-----|
E------------------|----------------------------|-----|
                   just trill this over and over

Verse
          4x
E-----------|----|---------------------------------|----|
B-----------|----|---------------------------------|----|
G-----------|----|---------------------------------|----|
D-----------|-9\-|---------------------------------|-9\-|
A-----6-4-3-|-7\-|---------------------------------|-7\-|
E-0-0-------|----|-0-0-0-0-0-0-0-0-0-0-0-0-0-0-0-0-|----|
                  pm . . . . . . . . . . . . . . .
      
E-------|-----------|----|---------------------------------|-----------|
B-------|-----------|----|---------------------------------|-----------|
G-------|-----------|----|---------------------------------|-----------|
D-------|-----------|-9\-|---------------------------------|-----------|
A-6-4-3-|-----6-4-3-|-7\-|---------------------------------|-----6-4-3-|
E-------|-0-0-------|----|-0-0-0-0-0-0-0-0-0-0-0-0-0-0-0-0-|-0-0-------|
                          pm . . . . . . . . . . . . . . . 

E-----------|----|---------------------------------|----|-------|-----------|
B-----------|----|---------------------------------|----|-------|-----------|
G-----------|----|---------------------------------|----|-------|-----------|
D-----------|-8~-|---------------------------------|-9\-|-------|-----------|
A-----6-4-3-|-6~-|---------------------------------|-7\-|-6-4-3-|-----6-4-3-|
E-0-0-------|----|-0-0-0-0-0-0-0-0-0-0-0-0-0-0-0-0-|----|-------|-0-0-------|
                 pm . . . . . . . . . . . . . . .

E----|---------------------------------|-----------|-----------|
B----|---------------------------------|-----------|-----------|
G----|---------------------------------|-----------|-----------|
D-9\-|---------------------------------|-----------|-----------|
A-7\-|---------------------------------|-----6-4-3-|-----6-4-3-|
E----|-0-0-0-0-0-0-0-0-0-0-0-0-0-0-0-0-|-0-0-------|-0-0-------|
      pm . . . . . . . . . . . . . . .

Chorus              
              4x
E---------------|-------------------|-------------------|-------------------|
B---------------|-------------------|-------------------|-------------------|
G---------------|-------------------|-------------------|-------------------|
D---6-8-4-4-----|-4---4-4-4-4-4-4-4-|-------------------|-6---6-6-6-6-6-6-6-|
A---4-6-2-2-----|-2---2-2-2-2-2-2-2-|-4---4-4-4-4-4-4-4-|-4---4-4-4-4-4-4-4-|
E-4---------0h2-|-------------------|-2---2-2-2-2-2-2-2-|-------------------|

E-------------------|-------------------|-------------------|---|
B-------------------|-------------------|-------------------|---|
G-------------------|-------------------|-------------------|---|
D-------------------|-4---4-4-4-4-4-4-4-|-------------------|---|
A-6---6-6-6-6-6-6-6-|-2---2-2-2-2-2-2-2-|-4---4-4-4-4-4-4-4-|-6-|
E-4---4-4-4-4-4-4-4-|-------------------|-2---2-2-2-2-2-2-2-|-4-|

Second solo

E-------------------------|-------------------------|-------------------------|
B15b-12h13p12h13p12h13p12-|-------------------------|-------------------------|
G-------------------------|-14p12h14p12h14p12h14p12-|-------------------------|
D-------------------------|-------------------------|-14p12h14p12h14p12h14p12-|
A-------------------------|-------------------------|-------------------------|
E-------------------------|-------------------------|-------------------------|

E-------------------------|----------|
B-------------------------|----------|
G-------------------------|----------|
D-------------------------|----------|
A-14p12h14p12h14p12h14p12-|----------|
E-------------------------|-12h14p12-|

Chorus

E------------------|------------------|------------------|------------------|
B------------------|------------------|------------------|------------------|
G------------------|------------------|------------------|------------------|
D-4--4-4-4-4-4-4-4-|------------------|-6--6-6-6-6-6-6-6-|------------------|
A-2--2-2-2-2-2-2-2-|-4--4-4-4-4-4-4-4-|-4--4-4-4-4-4-4-4-|-6--6-6-6-6-6-6-6-|
E------------------|-2--2-2-2-2-2-2-2-|------------------|-4--4-4-4-4-4-4-4-|

E------------------|------------------|---|-----|
B------------------|------------------|---|-19b-|
G------------------|------------------|---|-----|
D-4--4-4-4-4-4-4-4-|------------------|---|-----|
A-2--2-2-2-2-2-2-2-|-4--4-4-4-4-4-4-4-|-6-|-----|
E------------------|-2--2-2-2-2-2-2-2-|-4-|-----|

Repeat Verse

Repeat Chorus

Main solo

E------------------------|----------------------------------------------|
B------------------------|-13-15p13h15p13h15p13h15p13-------------------|
G------------------------|----------------------------15-13h15p13h15p13-|
D----------------------5-|----------------------------------------------|
A-6p4h6p4h6p4h6p4h6p4----|----------------------------------------------|
E------------------------|----------------------------------------------|
                      a.h.

E-------------------------------18-------|-20b-20b-20b------------------|
B-18p16h18p16h18p16h18p16h18b19----19r18-|-------------20-18-20-18-20~~-|
G----------------------------------------|------------------------------|
D----------------------------------------|------------------------------|
A----------------------------------------|------------------------------|
E----------------------------------------|------------------------------|

E------------------------------------------------------|----------------------|
B-18p16h18p16h16p18------------------------------------|----------------------|
G-------------------18p16h18p16h16p18------------------|-16p14h16p14h16p14h16-|
D-------------------------------------18p16h18p16h18~~-|----------------------|
A------------------------------------------------------|----------------------|
E------------------------------------------------------|----------------------|

E-----------------------------------|---------------------------------------|
B-----------------------------------|-----------------------------------10b-|
G-----------------------------------|---------11p9h11p9h11p9h11p9h11p9------|
D-16p14h16p14h16p14h16--16--16---16-|-11b-11b-------------------------------|
A-----------------------------------|---------------------------------------|
E-----------------------------------|---------------------------------------|
                       a.h. a.h. a.h.                                   a.h.
Repeat Chorus





Comments


Popular La Guns tabs & chords
Hollywood Tease Bass Tabs
No Mercy 1 Bass Tabs
One Way Ticket Bass Tabs
Never Enough Chords
Electric Gypsy Tabs
Malaria Tabs
Skin Intro Tabs
The Ballad Of Jayne 2 Tabs
Beautiful Ukulele
Never Enough Ukulele


Song lyrics



↑ Back to top | Tablatures and chords are parodies/interpretations of the original songs. You may use it for private study, scholarship, research or language learning purposes only
© 2014 AZChords.com Contact us | Privacy policy | DMCA | Add/correct tabs | Request tabs | Top 50 tabs