» » »

La Guns, Malaria Tabs (ver.1)

Artists:  A B C D E F G H I J K L M N O P Q R S T U V W X Y Z # 

Malaria Tabs (ver.1)

La Guns Tabs
Rating:
0/5 (0 votes)
Malaria lessons Tabs too difficult? Try these video lessons and learn fast
                Malaria guitar tab
LA Guns

Tuning:
Dop down half-note

to make controled feedback noise. This device was used by Jimmy Page in live
version of Whole Lotta Love. Also, depending on the equipment, parts of the song
could be played various ways. These parts have this symbol (*) next to them. The


Example notation:
bend string at 15 fret.... 15`
Slide from 12 to 14.... 12~14


INTRO: Sheeeeeeee...s
--------------------------------------------------------|
--------------------------------------------------------|
-----------------5-5-5-5--------------------------------|
-------------5-5---------5-5----------------------------|
-----5-5-5-5--------------------------------------------|
--------------------------------------------------------|


Riff 1 & Chorus
--------------------------------------------------------|
--------------------------------------------------------|
--------------------------------------------------------|
--------------------------------------------------------|
--2-----7-----5-----2~0------2-----7-----5-----2~0------|
--0-0-0---5-5---2-2-----3----0-0-0---5-5---2-2-----2----|



(*)Interlude: use Theremin for feedback
-----------------------------|-----22---------------------------|---|
-12--12----------------------|----------------------------------|---|
-12--12----------------------|----------------------------------|---|
-12--------------------------|----------------------------------|---|
-----------------------------|----------------------------------|---|
-----------------------------|----------------------------------|---|

(*)Interlude: pick on fret 22 across strings muffed
-----------------------------|---12~17-------17~0---------------|---|
-12--------------------------|---12~17-------17~0---------------|---|
-12--------------------------|----------------------------------|---|
-12--------------------------|----------------------------------|---|
-----------------------------|----------------------------------|---|
-----------------------------|----------------------------------|---|

Singing

(*)Somewhere another time...      Asiatic death
------0-------------------------------|----------------------------------|---|
-------0------------------------------|------12---harmonic---------------|---|
--------------------------------------|------12---harmonic---------------|---|
--------------------------------------|----------------------------------|---|
--5-7---------------------------------|-5-7------------------------------|---|
--0-0---------------------------------|-0-0------------------------------|---|


(*)yellow fever....                       sugar on my...breath
-------------------------------------|-----------------------------------|---|
-------------------------------------|-----------------------------------|---|
---5---------------------------------|------------------9----------------|---|
---5---------------------------------|------------------8----------------|---|
-------------------------------------|--7---------------7----------------|---|
-------------------------------------|--0--------------------------------|---|

it's final curtain...               ...what's happening
-----------------------------------------------------------------------------------------|
-----------------------------------------------------------------------------------------|
-----------------------------------------------------------------------------------------|
-5---5-----------------5---5-----------------2-----2--------------2-5-----0--------------|
-3-2-3--2-3--5-3--2----3-2-3--2-3--5-3--2----0--0--0--0-2-3-2-0---0-3--0-3--2--0---------|
-----------------------------------------------------------------------------------------|


hides be'd..veil tears                   ...fears yeah  (Wah-Wah)
------------------------------------------------------------------------------------------|
------------------------------------------------------------------------------------------|
------------------------------------------------------------------------------------------|
-5---5-----------------5---5-----------------2-----2-----2-0------------------------------|
-3-2-3--2-3--5-3--2----3-2-3--2-3--5-3--2----0--0--0----------3-0---3-2-0--0-0-2-3-2------|
-------------------------------------------------------------------------------------4`---|

She's malaria, she malaria
--------------------------------------------------------|
--------------------------------------------------------|
--------------------------------------------------------|
--------------------------------------------------------|
--2-----7-----5-----2~0------2-----7-----5-----2~0------|
--0-0-0---5-5---2-2-----3----0-0-0---5-5---2-2-----2----|

(*)Interlude: use Theremin hit these harmonics
-----------------------------------21`---------------------|
-----------------------------(19)--------------------------|
--------------------------5--------------------------------|
--------------------------5--------------------------------|
-----------------------------------------------------------|
-----------------------------------------------------------|

2nd verse

(*)Swamp fever...                          Strength fading
------0-------------------------------|---------------------------------|---|
-------0------------------------------|------12---harmonic--------------|---|
--------------------------------------|------12---harmonic--------------|---|
--------------------------------------|---------------------------------|---|
--5-7---------------------------------|-5-7-----------------------------|---|
--0-0---------------------------------|-0-0-----------------------------|---|


(*)yellow fever....                       my blood
-------------------------------------|----------------------------------|---|
--11~12------------------------------|----------------------------------|---|
--11~12------------------------------|----------------------------------|---|
--11~12------------------------------|----------------------------------|---|
-------------------------------------|--7-------------------------------|---|
-------------------------------------|--0-------------------------------|---|

So desperately...                           entity
-----------------------------------------------------------------------------------|
-----------------------------------------------------------------------------------|
-----------------------------------------------------------------------------------|
-5---5-----------------5---5-----------------2-----2--------------2-5-----0--------|
-3-2-3--2-3--5-3--2----3-2-3--2-3--5-3--2----0--0--0--0-2-3-2-0---0-3--0-3--2--0---|
-----------------------------------------------------------------------------------|


hides be'd..veil tears                   ...fears misery (Wah-Wah)
------------------------------------------------------------------------------------------|
------------------------------------------------------------------------------------------|
------------------------------------------------------------------------------------------|
-5---5-----------------5---5-----------------2-----2-----2-0------------------------------|
-3-2-3--2-3--5-3--2----3-2-3--2-3--5-3--2----0--0--0----------3-0---3-2-0--0-0-2-3-2------|
-------------------------------------------------------------------------------------4`---|

She's malaria, she's malaria
--------------------------------------------------------|
--------------------------------------------------------|
--------------------------------------------------------|
--------------------------------------------------------|
--2-----7-----5-----2~0------2-----7-----5-----2~0------|
--0-0-0---5-5---2-2-----3----0-0-0---5-5---2-2-----2----|

SOLO
---12~11~12~11~12---------12~11~12~11~12-------------------------------------|
------------------13---------------------13----------------------------------|
-----------------------------------------------------------------------------|
-----------------------------------------------------------------------------|
-----------------------------------------------------------------------------|
-----------------------------------------------------------------------------|


---12---12-------------------------------------------------------------------|
-----13---13--------12-13-12-------------------------------------------------|
-----------------------------14--12--14-14-15~14-----------------------------|
-------------------------------------------------15-14-----------------------|
-----------------------------------------------------------------------------|
-----------------------------------------------------------------------------|


-----------------------------------------------------------------------------|
------------------------14~19```--19````---19```-----15````------------------|
-------------14-15--17----------------------------12-------------------------|
-----15--17------------------------------------------------------------------|
-----------------------------------------------------------------------------|
-----------------------------------------------------------------------------|


-----------------------------------------------------------------------------|
----15-15--15-12-----13~12---------------------------------------------------|
----------------------------14----15-15-15-14---15~14-12---------------------|
-----------------------------------------------------------------------------|
-----------------------------------------------------------------------------|
-----------------------------------------------------------------------------|


-----------------------------------------------------------------------------|
-----------------------------------------------------------------------------|
-------------------------------------------------------12--------------------|
-------------------------------15--15-15-14-15~14------10--------------------|
-------------------------------------------------15----10--------------------|
-----------------------------------------------------------------------------|

Ohhooo
-----------------------------------------------------------------------------|
-----------------------------------------------------------------------------|
--9------12--------------12--------------------------------------------------|
--7------10--------7-----10--------------------------------------------------|
--7------10--------------10--------------------------------------------------|
---------------2~~~5---------------------------------------------------------|



repeat riff 1
--------------------------------------------------------|
--------------------------------------------------------|
--------------------------------------------------------|
--------------------------------------------------------|
--2-----7-----5-----2~0------2-----7-----5-----2~0------|
--0-0-0---5-5---2-2-----3----0-0-0---5-5---2-2-----2----|


(*)Ohhooo
-----------------------------------------------------------------------------|
-----------------------------------------------------------------------------|
--9--------4------9------4---------------------------------------------------|
--10-------7------10-----7---------------------------------------------------|
--10-------7------10-----7---------------------------------------------------|
--8--------5------8------5---------------------------------------------------|


So desperately...                           entity
-----------------------------------------------------------------------------------------|
-----------------------------------------------------------------------------------------|
-----------------------------------------------------------------------------------------|
-5---5-----------------5---5-----------------2-----2--------------2-5-----0--------------|
-3-2-3--2-3--5-3--2----3-2-3--2-3--5-3--2----0--0--0--0-2-3-2-0---0-3--0-3--2--0---------|
-----------------------------------------------------------------------------------------|


hides be'd..veil tears                   ...fears misery (Wah-Wah)
------------------------------------------------------------------------------------------|
------------------------------------------------------------------------------------------|
------------------------------------------------------------------------------------------|
-5---5-----------------5---5-----------------2-----2-----2-0------------------------------|
-3-2-3--2-3--5-3--2----3-2-3--2-3--5-3--2----0--0--0----------3-0---3-2-0--0-0-2-3-2------|
-------------------------------------------------------------------------------------3----|

She's malaria, she's malaria 8x
-----------------------------------------------------------------------------|
-----------------------------------------------------------------------------|
-------------------------------7---------------------------------------------|
-------------------------------7--7------------------------------------------|
--2-----7-----5-----2~0--------5--7------------------------------------------|
--0-0-0---5-5---2-2-----3---------5------------------------------------------|

She's malaria, she's malaria
-----------------------------------------------------------------------------|
--------------------------------------8--------------------------------------|
-------------------------------7--6---5--------------------------------------|
-------------------------------7--7------------------------------------------|
--2-----7-----5-----2~0------------------------------------------------------|
--0-0-0---5-5---2-2-----3----------------------------------------------------|


This is not a typical run-of-the-mill metal song but great one. Happy playings!
            

comments powered by Disqus
↑ Back to top | La Guns Tabs for Malaria. Lyrics for acoustic guitar and electric guitar. Tablatures and chords are parodies/interpretations of the original songs. You may use it for private study, scholarship, research or language learning purposes only