» » »

I Wanna Be Your Man Tabs (ver.1)

Artists:  A B C D E F G H I J K L M N O P Q R S T U V W X Y Z # 

I Wanna Be Your Man Tabs (ver.1)

La Guns
Rating:
3/5 (3 votes)

Hard to play? Try these video lessons and learn fast.
                -----------------------------------------------------------------------------
                          La Guns - I Wanna Be Your Man
-----------------------------------------------------------------------------

Tuning: Standard

Intro:
Heavy Distorion
e|---------------------------------------------------------------(0)-----|
B|-----------------------------------------------------------------(0)---|
G|-----------------------------------------------------------------------|
D|-4--7-9--7-9--7-4----------------4--7-9--7-9--7-4--9p7\5-9p7\5---------|
A|-2--5-7--5-7--5-2--9p7\5-7p5\3---2--5-7--5-7--5-2----------------------|
E|-----------------------------------------------------------------------|

e|--------------------------------------------------------------------------|
B|--------------------------------------------------------------------------|
G|----------------------0---2------0---2------0-----2--2--2---0---4-4-4--0--|
D|-4--7-9--7-9--7-4--2---0---2------0---2------0-2---2--2--2---0---4-4-4--0-|
A|-2--5-7--5-7--5-2---2-----0----------0----------2-------------------------|
E|-------------------0---------------------------0--------------------------|

e|--------------------------------------------------------|
B|--------------------------------------------------------|
G|----0---------------------------------------------------|
D|-2---0--2---4---7-9--7-9--7-4-------------7-9--7-9------|
A|--2------2--2---5-7--5-7--5-2-------------5-7--5-7------|
E|-0------0-----------------------------------------------|

e|--------------------------------------------------------------------------|
B|----------------------------4p2p0-------4p2p0-----------------------------|
G|-2----0---2----0------------------4p2p0-------4p2p0---------------0---2---|
D|--2----0---2----0----2------------------------------2p0-----2------0---2--|
A|-0--------0-----------2---------------------------------2p0--2--------0---|
E|---------------------0--------------------------------------0-------------|

e|-----------------------------------------------------------------|
B|-----------------------------------------------------------------|
G|-0---------------------------------------------------------------|
D|--0--2-----------------------------------------------------------|
A|------2----9-7-4----4--7-9--7-9--7-4-----------------------------|
E|-----0-----7-5-2----2--5-7--5-7--5-2-----------------------------|

That's all I got so far, I'll finish it soon. 
            
Hard to play? Try these video lessons and learn fast. | Correct




comments powered by Disqus
↑ Back to top | Tablatures and chords are parodies/interpretations of the original songs. You may use it for private study, scholarship, research or language learning purposes only