» » »

Electric Gypsy Bass tabs (ver.1)

Artists:  A B C D E F G H I J K L M N O P Q R S T U V W X Y Z # 

Electric Gypsy Bass tabs (ver.1)

La Guns
Rating:
0/5 (0 votes)

Hard to play? Try these video lessons and learn fast.
                Album:L.A. Guns
Bassist:Kelly Nickels

This is a kickass tune by a kickass band.

Key:
x = times a number
* = let it ring

Intro
G:---------|---------|-------------------------|--------------------|
D:---------|---------|----------5-4---5-4---5-4|-----5-4---5-4---5-4|
A:---------|---------|--------------5-----5----|---------5-----5----|
E:5*--5-5--|5*--5-5--|5*---5x24----------------|5x24----------------|

Verse
G:--------------------|--------------------|--------------------|--------------------|
D:-----5-4---5-4---5-4|-----5-4---5-4---5-4|-----5-4---5-4---5-4|-----5-4---5-4---5-4|
A:---------5-----5----|---------5-----5----|---------5-----5----|---------5-----5----|
E:5x24----------------|5x24----------------|5x24----------------|5x24----------------|

Chorus
G:-----------------------|-----------------------|-----------------------|
D:-----------------------|-----------------------|-----------------------|
A:-----------------------|-----------------------|-----------------------|
E:5--5--3-3-3-2--2--1-1-1|5--5--3-3-3-2--2--1-1-1|5--5--3-3-3-2--2--1-1-1|

G:-----------------------|
D:-----------------------|
A:-----------------------|
E:5--5--3-3-3-2--2--1-1-1|

After Chorus
G:--------------------|--------------------|
D:-----5-4---5-4---5-4|-----5-4---5-4---5-4|
A:---------5-----5----|---------5-----5----|
E:5x24----------------|5x24----------------|

Verse

Chorus

Solo
G:-----------------------------------------------------------------------|
D:-----------------------------------------------------------------------|
A:-----------------------------------------------------------------------|
E:5-5---3-3---1-1---0--1-2-3-4-5-3-4-5-5---3-3---1-1---0--1-2-3-4-5-3-4-5|

G:-----------------------|-----------------------|-----------------------|
D:-----------------------|-----------------------|-----------------------|
A:-----------------------|-----------------------|-----------------------|
E:5--5--3-3-3-2--2--1-1-1|5--5--3-3-3-2--2--1-1-1|5--5--3-3-3-2--2--1-1-1|

G:-----------------------|
D:-----------------------|
A:-----------------------|
E:5--5--3-3-3-2--2--1-1-1|

G:-----------------------------------------------------------------------|
D:-----------------------------------------------------------------------|
A:-----------------------------------------------------------------------|
E:5-5---3-3---1-1---0--1-2-3-4-5-3-4-5-5---3-3---1-1---0--1-2-3-4-5-3-4-5|

After Solo
G:--------------------|--------------------|
D:-----5-4---5-4---5-4|-----5-4---5-4---5-4|
A:---------5-----5----|---------5-----5----|
E:5x24----------------|5x24----------------|

Verse

Chorus

End
G:------------------------------------|------------------------------------|
D:------------------------------------|------------------------------------|
A:------------------------------------|------------------------------------|
E:55555555-33333333-222222222-11111111|55555555-33333333-222222222-11111111|

G:------------------------------------|------------------------------------|----|
D:------------------------------------|------------------------------------|----|
A:------------------------------------|------------------------------------|----|
E:55555555-33333333-222222222-11111111|55555555-33333333-222222222-11111111|5--5|

That's it. This song is really awesome. I already put it in order for you. 
            
Hard to play? Try these video lessons and learn fast. | Correct




comments powered by Disqus
↑ Back to top | Tablatures and chords are parodies/interpretations of the original songs. You may use it for private study, scholarship, research or language learning purposes only