» » »

La Guns, Bitch Is Back Bass tabs (ver.1)

Artists:  A B C D E F G H I J K L M N O P Q R S T U V W X Y Z # 

Bitch Is Back Bass tabs (ver.1)

La Guns Tabs
 Rating:
4/5 (4 votes)
Bitch Is Back lessons Tabs too difficult? Try these video lessons and learn fast
                Album:L.A. Guns
Bassist:Kelly Nickels

This is one of favorite songs, ever. The bass line is fun, and you can pop the 
octave if you want.

Key:
x = times a number
/ = slide up
* = let it ring

Intro
G:---------------------------------|
D:---------------------------------|
A:---------------------------------|
E:0x6-1-2x7-3-5x6-6-7-7-7-4-6-3-5-2|

After Intro/Chorus
G:------------|-------------|
D:---4--------|---4---------|
A:------------|--------3-2-0| x4
E:22---02-22-5|22---02------|

Verse
G:------------|------------|
D:---4--------|---4--------|
A:------------|------------| x4
E:22---02-22-5|22---02-22-5|

Pre-Chorus
G:--------------------------|---------------------------------|
D:--------------------------|--------4-6-4--------------------|
A:--------------------------|--------------4------------------|
E:0*-1-2*--5*-7*-7-4-6-3-5-2|0*-1-2*---------5*-7*-7-4-6-3-5-2|

Chorus x2

Verse x4

Pre-Chorus

Chorus x2

Solo = Verse x4

After Solo
G:------------|----------|------------|-------|R|------------|-------|R|
D:---4--------|---4------|---4--------|---4---|E|---4--------|---4---|E|
A:------------|----------|------------|-------|S|------------|-------|S|
E:22---02-22-5|22---02/14|22---02-22-5|22---02|T|22---02-22-5|22---02|T|

Verse x4

Pre-Chorus

End
G:------------|-------|
D:---4--------|---4---|
A:------------|-------|
E:22---02-22-5|22---02|

That's it. This song is awesome. This tab is correct. I already put it in order 
            
Submit corrections

comments powered by Disqus
↑ Back to top | La Guns Bass for Bitch Is Back. Lyrics for acoustic guitar and electric guitar. Tablatures and chords are parodies/interpretations of the original songs. You may use it for private study, scholarship, research or language learning purposes only