» » »

L A Guns, Vampire Bass tabs (ver.1)

Artists:  A B C D E F G H I J K L M N O P Q R S T U V W X Y Z # 

Vampire Bass tabs (ver.1)

L A Guns Tabs
Rating:
0/5 (0 votes)
Vampire lessons Tabs too difficult? Try these video lessons and learn fast
                Bassist:Adam Hamilton

This is an awesome ballad. It's not really a power ballad, because power 
ballads are mostly about love or loss. This song rocks.

Key:
* = let it ring

Intro
G:-------------------|-------------------|
D:-------------------|-------------------|
A:2*--0-2-2----------|2*--0-2-2----------|
E:----------3*--1-3-3|----------3*--1-3-3|

Verse
G:-----------------------------------------------------------------------------|
D:-----------------------------------------------------------------------------|
A:2*---2-2------------2*---2-2-----------2*---2-2------------2*---2-2----------|
E:----------3*---3-3-----------3*---3-3------------3*---3-3------------3*---3-3|

"Shot off..."
G:------------|------------|------------|------------|
D:------------|------------|------------|------------|
A:------------|------------|------------|------------|
E:0*--2*--3*--|0*--2*--3*--|0*--2*--3*--|0*--2*--3*--|

Verse 2
G:----------------------------------------|
D:----------------------------------------|
A:2*---2-2------------2*---2-2------------|
E:----------3*---3-3------------3*---3-3--|

G:------------------------------------------------|
D:---------------------------------5-5-4-4-2-2----|
A:2*---2-2------------2*---2-2-----------------5-5|
E:----------3*---3-3------------3*----------------|

"Shot off..."

Solo
G:--------------------------------------------|
D:--------------------------------------------|
A:2*--0-2-2------5------2*--0-2-2------5------|
E:-----------3*----3-3-------------3*----3-3--|

G:----------------------------------------------|
D:---------------------------------------5-4-2--|
A:2*--0-2-2------5------2*--0-2-2--------------5|
E:-----------3*----3-3-------------3*--3--------|

G:------------|------------|------------|------------|
D:------------|------------|------------|------------|
A:------------|------------|------------|------------|
E:0*--2*--3*--|0*--2*--3*--|0*--2*--3*--|0*--2*--3*--|

Verse 3
G:--------------|--------------------------------------|
D:--------------|--------------------------------------|
A:2*------2*----|2*---2-2------------2*---2-2----------|
E:----3*------3*|----------3*---3-3------------3*---3-3|

End
"Shot off..."

"Shot off..."

"Shot off..."

That's it. Awesome song, and it's also fun to add in some things here and there. 
I already put it in order for you. Any questions or comments, e-mail me at 
            

comments powered by Disqus
↑ Back to top | L A Guns Bass for Vampire. Lyrics for acoustic guitar and electric guitar. Tablatures and chords are parodies/interpretations of the original songs. You may use it for private study, scholarship, research or language learning purposes only