» » »

L A Guns, Snake Eyes Boogie Bass tabs (ver.1)

Artists:  A B C D E F G H I J K L M N O P Q R S T U V W X Y Z # 

Snake Eyes Boogie Bass tabs (ver.1)

L A Guns Tabs
Rating:
0/5 (0 votes)
Snake Eyes Boogie lessons Tabs too difficult? Try these video lessons and learn fast
                Bassist:Kelly Nickels

This is a really fun song to play. Its Rock n Roll and boogie. 

Key:
x = times a number
* = let it ring

Intro
G:--|---------------|---------------|---------------|---------------|
D:--|--3------------|--3------------|--3------------|--3------------|
A:5*|5---5-3--------|5---5-3--------|5---5-3--------|5---5-3--------|
D:--|--------7-5-3-0|--------7-5-3-0|--------7-5-3-0|--------7-5-3-0|

Verse
G:--|---------------|--|---------------|--|---------------|--|---------------|
D:--|--3------------|--|--3------------|--|--3------------|--|--3------------|
A:5*|5---5-3--------|5*|5---5-3--------|5*|5---5-3--------|5*|5---5-3--------|
D:--|--------7-5-3-0|--|--------7-5-3-0|--|--------7-5-3-0|--|--------7-5-3-0|

Pre-Chorus
G:-------------------------|
D:-------------------------|
A:----3-4-5---------3-4-5--|
D:7x5-------5x8-7x5-------5|

Chorus
G:---------------|---------------|---------------|---------------|
D:--3------------|--3------------|--3------------|--3------------|
A:5---5-3--------|5---5-3--------|5---5-3--------|5---5-3--------|
D:--------7-5-3-0|--------7-5-3-0|--------7-5-3-0|--------7-5-3-0|

Verse

Pre-Chorus

Chorus

Bridge
G:--------|-------------------|
D:7-8-9-10|-------------------|
A:--------|-------------------|
D:--------|3x8-5x8-3x8-5x4-7x4|

Solo
G:---------------|---------------|---------------|---------------|
D:--3------------|--3------------|--3------------|--3------------|
A:5---5-3--------|5---5-3--------|5---5-3--------|5---5-3--------|
D:--------7-5-3-0|--------7-5-3-0|--------7-5-3-0|--------7-5-3-0|

G:--3------------|--3------------|---------------|---------------|-----------|
D:5---5-3--------|5---5-3--------|--3------------|--3------------|-----------|
A:--------5-3-1--|--------5-3-1--|5---5-3--------|5---5-3--------|----3-4-5--|
D:--------------5|--------------5|--------7-5-3-0|--------7-5-3-0|7x5-------5|

G:---------------|---------------|
D:--3------------|--3------------|
A:5---5-3--------|5---5-3--------|
D:--------7-5-3-0|--------7-5-3-0|

Verse

Pre-Chorus

Chorus x2

End
G:---------------------|--------|
D:-----4--4-5--5-6--6-7|7*------|
A:5--5-----------------|---5*--5|
D:---------------------|--------|

That's it. This song rocks. One of my favorite all time songs. I already put 
it in order, so you should have no trouble. Any comments or questions, e-mail 
            

comments powered by Disqus
↑ Back to top | L A Guns Bass for Snake Eyes Boogie. Lyrics for acoustic guitar and electric guitar. Tablatures and chords are parodies/interpretations of the original songs. You may use it for private study, scholarship, research or language learning purposes only