» » »

L A Guns, One Way Ticket Tabs (ver.1)

Artists:  A B C D E F G H I J K L M N O P Q R S T U V W X Y Z # 

One Way Ticket Tabs (ver.1)

L A Guns Tabs
 Rating:
4/5 (4 votes)
One Way Ticket lessons Tabs too difficult? Try these video lessons and learn fast
1
                One Way Ticket To Love
L.A. Guns

intro (acoustic)

               Am            |               G                |

|--------------------------------------------------------------------|
|--------------------------------------------------------------------|
|-------------5--------7-----------4----------5---------4------------|
|----------------7--------7------------5---------5----------5--------|
|----------7-------7--------7-------------5---------5----------------|
|------5-------------------------------------------------------------|

          F#m                |                    C

|------------------------------------------------------3-------------|
|--------------------------------------------------1-------1---------|
|---------2-----------4-----------------------0---------------0------|
|-----4------4-----------4---------------2-----------------------2---|
|--4-------------4-----------4-------3-------------------------------|
|--------------------------------------------------------------------|

|---------------------3--------------------|
|-----------------1-------1----------------|
|------------0-----------------------------|
|--------0---------------------------------|
|----2----------------------------3---2----|
|------------------------------------------|

then you play the bridge several times

|-------------------------------------------------------------------|
|-------------------------------------------------------------------|
|------------5-----------7------------4----------5------------------|
|----------------7----------7-------------5-------------------------|
|-------7-----------7----------7-------------5-----------3----2-----|
|---5---------------------------------------------------------------|


and two times this

            |               Dm                |         C

|-------------------------------------------------------------------|
|-------------------------------------------------------------------|
|-----------------10------------12----------------9-------------10--|
|----------------------12------------12---------------10------------|
|------------12------------12-------------12--------------10--------|
|-13--12-10---------------------------------------------------------|


for any suggest contact me
            
Submit corrections

comments powered by Disqus
↑ Back to top | L A Guns Tabs for One Way Ticket. Lyrics for acoustic guitar and electric guitar. 1 Tablatures and chords are parodies/interpretations of the original songs. You may use it for private study, scholarship, research or language learning purposes only