» » »

L A Guns, Down In The City Bass tabs (ver.1)

Artists:  A B C D E F G H I J K L M N O P Q R S T U V W X Y Z # 

Down In The City Bass tabs (ver.1)

L A Guns Tabs
 Rating:
4/5 (4 votes)
Down In The City lessons Tabs too difficult? Try these video lessons and learn fast
1
                Bassist:Kelly Nickels

This is an awesome tune. It's deffinately one of my favorites.

Key:
* = let it ring
/ = slide up
x = times a number

Intro
G:----------------------|
D:----------------------|
A:0*-7/12*-12-15*-17-12*|
E:----------------------|

Another part
G:------------------------------------------|
D:------------------------------------------|
A:------------3-33-5-0--0-------------3-3-5*|
E:5-55-3-0--0-------------5-55-3-0--0-------|

Verse
G:-------------------------------|
D:----2-------2-------2-----2-5-2|
A:0-4---4-0-4---4-0-4---4-0------|
E:-------------------------------|

Chorus
G:-----------------|----------------|-----------------|---------------|
D:-----------------|----------------|-----------------|---------------|
A:3-3---3-5--------|3-3---5*--------|3-3---3-5--------|3-3---5*-------|
E:----5------0-0-0*|----5-----0-3-0*|----5------0-0-0*|----5-----0-3-0|

Solo
G:--|--|--|----------|----------|----------|
D:--|--|--|----------|----------|----------|
A:--|--|--|----------|5x13-3-2-0|5x13-3-2-0|
E:55|55|55|55-5-4-3-2|----------|----------|

G:----------------------------------------------------|
D:----------------------------------------------------|
A:-----4-5-6-7x8-5x8----------------------------------|
E:5x13---------------5-6-7-8-9-10-11-12-13-14-15-16-17|

G:-----------------------------------------|
D:-----------------------------------------|
A:7x8-5x8----------------------------------|
E:--------5-6-7-8-9-10-11-12-13-14-15-16-17|

At end of last chorus play
G:-----|-----|
D:-----|-----|
A:--3--|-----|
E:5---5|0-3-0|

That's it. This is such a kickass song. You can add things in like octaves 
if you want. This tab is correct. You can put it in order yourself, I put all 
            
Submit corrections

comments powered by Disqus
↑ Back to top | L A Guns Bass for Down In The City. Lyrics for acoustic guitar and electric guitar. 1 Tablatures and chords are parodies/interpretations of the original songs. You may use it for private study, scholarship, research or language learning purposes only