>
 >
Crystal Eyes

Crystal Eyes Guitar Tabs

L A Guns - Crystal Eyes chords, tabs, tablatures, lyrics

Guitar lessons | Add/correct | Request | Top 50 tabs Artists:  A B C D E F G H I J K L M N O P Q R S T U V W X Y Z 0-9

Crystal Eyes Guitar Tabs – L A Guns

CD, Sheet music, Poster

Do you like Crystal Eyes? Share with your friends now
Tabs
L.A. GUNS - Crystal Eyes
Hollywood Vampires (1991)


I tabbed most of the solo guitar, and a bit of rhythm guitar as well. I
decided to, after I saw it was requested by 80 people or something on the
opinion...and my personal favourite :). I figured some of their other stuff
too, if anybody is interested, just let me know! Hopefully this tab won't be
hard to understand, if there are any problems/questions, PM me.



Chords:
Intro: Dm A# C Dm
Verse: Dm A#
Pre-Chorus: C Dm
Chorus: A# C Dm x2 then A# C F E/5+ D C A# C Dm
Pre-Solo: Dm A# G Dm
Solo: C Dm
Outro: Dm A# Dm A Dm

E/5+
e|----|
B|----|
G|-9--|
D|-10-|
A|-7--|
E|----|



// INTRO
e|----------------------------------------------|
B|-------------13b15b13~------------------------|
G|-12b14b12~-------------10b12-12b10-9h10p9-----|
D|------------------------------------------12~-|
A|----------------------------------------------|
E|----------------------------------------------|

    +
e|-------------------------------------------------------|
B|-13-15-15~----17b15-13-15-13~--------------------------|
G|---------------------------------12b10-10b9-9h10p9-----|
D|---------------------------------------------------12~-|
A|-------------------------------------------------------|
E|-------------------------------------------------------|



// VERSE                        At one point, Tracii plays:  
e|----------------------------| |-------------|
B|-5-6---5-6------5-6---5-6---| |-13-15-15~---|
G|-----7-----7----------------| |-------------|
D|--------------------5-----5-| |-------------|
A|----------------------------| |-------------|
E|----------------------------| |-------------|



// PRE-CHORUS
e|------------15--13--12------------|
B|-8--6--5------------------8--6--5-|
G|----------------------------------|
D|----------------------------------|
A|----------------------------------|
E|----------------------------------|

Alternatively, you can play rhythm guitar, which is played closed to this:
e|-------------------------------1---------|
B|-------------1p0-------------3-----3---1-|
G|-----------------0---------2---------2---|
D|-----0h2-----------2-----0---------------|
A|-3-------3-----------3-------------------|
E|-----------------------------------------|

At the end of the pre-chorus play:
e|---------|
B|---------|
G|-7---5---|
D|-7---5---|
A|-5---3---|
E|---------|



// CHORUS #1
e|-----------------------------------|
B|-3~---5~---6~---8h10p8-6h8p6-5h6p5-|
G|-----------------------------------|
D|-----------------------------------|
A|-----------------------------------|
E|-----------------------------------|

e|------------------------------|
B|-3~---/6-5~--/8-6~---10\8-8\6-|
G|------------------------------|
D|------------------------------|
A|------------------------------|
E|------------------------------|

e|------------------------------|
B|-3~---/6-5~---10--8--6--6h8p6-|
G|------------------------------|
D|------------------------------|
A|------------------------------|
E|------------------------------|

                  +  
e|---------------------|
B|-3~---/6-5~--/6-3~---|
G|---------------------|
D|---------------------|
A|---------------------|
E|---------------------|



// CHORUS #2
e|------------------------------|
B|-3~---/6-5~--/8-6~---10\8-6\5-|
G|------------------------------|
D|------------------------------|
A|------------------------------|
E|------------------------------|

e|------------------------------|
B|-3~---/6-5~--/8-6~---10\8-8\6-|
G|------------------------------|
D|------------------------------|
A|------------------------------|
E|------------------------------|

e|------------------------------|
B|-3~---/6-5~---10--8--6--5h6p5-|
G|------------------------------|
D|------------------------------|
A|------------------------------|
E|------------------------------|
                    
e|---------------------|
B|-3~---/6-5~--/6-3~---|
G|---------------------|
D|---------------------|
A|---------------------|
E|---------------------|



// PRE-SOLO
e|---------------------------------------------------------------|
B|-15~-------10b13-13~-------------------------------------------|
G|---------------------------10b12-12~------(12)-12b14-14~-------|
D|---------------------------------------------------------------|
A|---------------------------------------------------------------|
E|---------------------------------------------------------------|
Play it calm all the way through



// SOLO
e|--------------------------/15-13-12-13-12-------------|
B|------------------------------------------13-13/15~---|
G|----------------7-10-9~-------------------------------|
D|-----------7-10---------------------------------------|
A|------8-10--------------------------------------------|
E|-8-10-------------------------------------------------|

e|-17-15---15-13---13----------------------------------------------------------|
B|--------------------17-15-17-13-12-13-12-------------------------------------|
G|-----------------------------------------14-12-10--9--10--12--10-9b10p9-7~---|
D|-----------------------------------------------------------------------------|
A|-----------------------------------------------------------------------------|
E|-----------------------------------------------------------------------------|

e|-------------------15-13-12-13-12-------------17--15--13--12--13--12--------|
B|---------/13-12-------------------13-13/15~---------------------------15~---|
G|-10-9-----------------------------------------------------------------------|
D|----------------------------------------------------------------------------|
A|----------------------------------------------------------------------------|
E|----------------------------------------------------------------------------|

e|------------------12-13-15-13-12----12----------------------12-13-12b13p12-----------|
B|---------10-12-13----------------15----15-13-12-10-12-13-15----------------15~-------|
G|-9-10-12-----------------------------------------------------------------------------|
D|-------------------------------------------------------------------------------------|
A|-------------------------------------------------------------------------------------|
E|-------------------------------------------------------------------------------------|



// LAST VERSE
e|-15b17b15-13-15b17~-------------------------------|
B|--------------------------15b13-10---13b15--------|
G|--------------------------------------------------|
D|--------------------------------------------------|
A|--------------------------------------------------|
E|--------------------------------------------------|



// CHORUS #3
e|------------------------------|
B|-3~---/6-5~--/8-6~---10\8-6\5-|
G|------------------------------|
D|------------------------------|
A|------------------------------|
E|------------------------------|

e|------------------------------|
B|-3~---/6-5~--/8-6~------------|
G|------------------------------|
D|------------------------------|
A|------------------------------|
E|------------------------------|

e|------------------------------|
B|-3~---/6-5~---10--8--6--5h6p5-|
G|------------------------------|
D|------------------------------|
A|------------------------------|
E|------------------------------|
                    
e|---------------------|
B|-3~---/6-5~--/6-3~---|
G|---------------------|
D|---------------------|
A|---------------------|
E|---------------------|
There's another solo after this part played during the chorus, I didn't
figure it out, but if anyone would like to play it and need help, just PM
me, and I will try to transcribe it.



// OUTRO
e|-------------------------------------0---------0---5--------|
B|-----6-5--6---------6-5--6---------5---------5-----6--------|
G|---7--------7---3----------7-------------7---------7--------|
D|--------------7---5----------8-7-5---------8-------7--------|
A|-5-------------------------------------------------5--------|
E|------------------------------------------------------------|
Tracii plays it very quietly towards the end, it was bit hard to figure it
out, should sound pretty close though.



| /  slide up
| \  slide down
| h  hammer-on
| p  pull-off
| ~  vibrato
| +  harmonic





Comments


Popular L A Guns tabs & chords
Electric Gypsy Bass Tabs
Nothing To Lose Bass Tabs
One Way Ticket Bass Tabs
I Found You Chords
Its Over Now Chords
The Ballad Of Jayne Chords
Electric Gypsy Tabs
No Mercy Tabs
Sex Action Tabs
Skin Intro Tabs


Song lyrics



↑ Back to top | Tablatures and chords are parodies/interpretations of the original songs. You may use it for private study, scholarship, research or language learning purposes only
© 2014 AZChords.com Contact us | Privacy policy | DMCA | Add/correct tabs | Request tabs | Top 50 tabs