» » »

Lafee, Wo Bist Du (Mama) Tabs (ver.1)

Artists:  A B C D E F G H I J K L M N O P Q R S T U V W X Y Z # 

Wo Bist Du (Mama) Tabs (ver.1)

Lafee Tabs
 Rating:
4/5 (4 votes)
Wo Bist Du (Mama) lessons Tabs too difficult? Try these video lessons and learn fast
                Intro
e|--------------------------------------------------2-----------|
B|---3-2-----0-3----3-2---2---3-2-0---2-3----3-2-0--------------|
G|-------4-------------4----------------------------------------|
D|-4-------4------4---------2-------4------2--------------------|
A|2--------------2---------0--------------0---------------------|
E|--------------------------------------------------------------|

e|-----------------------------------------------------------------2--|
B|----3-2-0---2-3----3-2-0-----2------3-2-0---2-3---3-2-0---0-2-3-----|
G|--------------------------------------------------------4-----------|
D|----------4-------------------------------4-------------------------|
A|--5--------------5----------------4-------------4-------------------|
E|-3--------------3----------------2-------------2--------------------|

    Bm            
Ich fühl mich kalt und leer 
       A
Ich vermisse dich so sehr 
       G
Deine Wärme ist nicht hier 
         F#   
Mama du bist nicht mehr bei mir 
           Bm
Warum nur lässt du uns allein 
      A
Papa hat´s nicht so gemeint 
       G
Seine Tränen sind für dich 
      F#
Vermisst du uns denn nicht

   Bm             A
Mama, Wo bist du jetzt 
   G              F#
Mama, Warum bist du nicht hier 
      Bm
Bei mir            
Mama wo bist du 
A
bitte sag mir gehts dir gut?! 
   G    
Es tut so weh hörst du mir zu?! 
F#
Mama wo bist du

     Bm
Ich kann dich nicht verstehn 
  A
Warum wolltest du gehn 
            G
Such- jeden Tag nach deiner Hand 
         F#
Die ich früher immer fand 
              Bm
Jetzt ist sie weg - lässt mich allein 
       A
Nachts hör ich Papa weinen 
        G
Oh ich hasse dich dafür 
          F#
Mama ich liebe dich so sehr

   Bm             A
Mama, Wo bist du jetzt 
   G              F#
Mama, Sag mir warum Wofür
      Bm
Bei mir            
Mama wo bist du 
    A
Wo immer du auch bist ich hoff es geht dir gut
   G    
Es tut so weh hörst du mir zu?! 
F#           A
Mama wo bist du
                       Bm
Bitte sag mir hab ich Schuld daran 
         G                               F
Dass du mich nicht mehr in deinen Armen halten kannst

e|----------------------------------------------------------|
B|----------------------------------------------------------|
G|----------------------------------------------------------|
D|---------7-7--7--5-5--5--3-3--3--2-2--2-------------------|   
A|-5~------5-5--5--3-3--3--1-1--1--0-0--0-------------------|
E|----------------------------------------------------------|

Mama, Wo bist du jetzt  Mama, Warum bist du nicht hier
e|----------------------------------------------------------|
B|----------------------------------------------------------|
G|----------------------------------------------------------|
D|-7-7--7-----5-5--5-----3-3--3-----2-2--2------------------|   
A|-5-5--5-----3-3--3-----1-1--1-----0-0--0------------------|
E|----------------------------------------------------------|

Bei mir,  Wo bist du jetzt   Mama, Sag mir warum, Wofür
e|----------------------------------------------------------|
B|----------------------------------------------------------|
G|----------------------------------------------------------|
D|-7-7--7-----5-5--5-----3-3--3-----2-2--2------------------|   
A|-5-5--5-----3-3--3-----1-1--1-----0-0--0------------------|
E|----------------------------------------------------------|

 Mama wo bist du                       Es tut so weh bitte hör mir zu
 Wo immer du auch                           Mama wo bist du
 bist ich hoff es geht dir gut
e|----------------------------------------------------------|
B|----------------------------------------------------------|
G|----------------------------------------------------------|
D|-7-7--7-----5-5--5-----3-3--3-----------------------------|   
A|-5-5--5-----3-3--3-----1-1--1----7-7-8-8-9-9--------------|
E|---------------------------------5-5-6-6-7-7--------------|

Wo bist du jetzt  Mama, Warum bist du nicht hier
e|----------------------------------------------------------|
B|----------------------------------------------------------|
G|----------------------------------------------------------|
D|-7-7--7-----5-5--5-----3-3--3-----2-2--2------------------|   
A|-5-5--5-----3-3--3-----1-1--1-----0-0--0------------------|
E|----------------------------------------------------------|

Bei mir,  Wo bist du jetzt     Mama, Sag mir warum, Wofür
e|----------------------------------------------------------|
B|----------------------------------------------------------|
G|----------------------------------------------------------|
D|-7-7--7-----5-5--5-----3-3--3-----2-2--2------------------|   
A|-5-5--5-----3-3--3-----1-1--1-----0-0--0------------------|
E|----------------------------------------------------------|

Mama !!    Mama  !!   Mama !!   Wo bist du?
e|----------------------------------------------------------|
B|----------------------------------------------------------|
G|----------------------------------------------------------|
D|-7-7--7-----5-5--5-----3-3--3-----------------------------|   
A|-5-5--5-----3-3--3-----1-1--1----7-7-8-8-9-9--------------|
E|---------------------------------5-5-6-6-7-7--------------|

-CHORDS USED-
Bm       A        G      F#
|2|     |0|      |3|     |2|   
|3|     |2|      |3|     |2|      
|4|     |2|      |0|     |3|      
|4|     |2|      |0|     |4|     
|2|     |0|      |2|     |4|      
|0|     |x|      |3|     |2|      
            
Submit corrections

comments powered by Disqus
↑ Back to top | Lafee Tabs for Wo Bist Du (Mama). Lyrics for acoustic guitar and electric guitar. Tablatures and chords are parodies/interpretations of the original songs. You may use it for private study, scholarship, research or language learning purposes only