» » »

Lafee, Tell Me Why Tabs (ver.1)

Artists:  A B C D E F G H I J K L M N O P Q R S T U V W X Y Z # 

Tell Me Why Tabs (ver.1)

Lafee Tabs
 Rating:
4/5 (4 votes)
Tell Me Why lessons Tabs too difficult? Try these video lessons and learn fast
                Lafee - Tell me why


INTRO:
               Dm                                          C              Bb
E||-------|-----------------1---------|-------1--------------|--0--------------1----|
B||-------|------------3--------------|--3--------------3----|--1---------1----3----|
G||-------|---------------------------|----------------------|--0----0---------3----|
D||-------|--0-------------------0----|------------0---------|----------------------|
A||-------|---------------------------|----------------------|----------------------|
E||-------|---------------------------|----------------------|----------------------|


  Dm                                            C              Bb
------------1---------|-------1--------------|--0--------------1----|------------1---------|
-------3--------------|--3--------------3----|--1---------1----3----|-------3--------------|
----------------------|----------------------|--0----0---------3----|----------------------|
--0--------------0----|------------0---------|----------------------|--0--------------0----|
----------------------|----------------------|----------------------|----------------------|
----------------------|----------------------|----------------------|----------------------|


-------1--------------|--0--------------1----|------------1---------|-------1--------------|
--3--------------3----|--1---------1----3----|-------3--------------|--3--------------3----|
----------------------|--0----0---------3----|----------------------|----------------------|
------------0---------|----------------------|--0--------------0----|------------0---------|
----------------------|----------------------|----------------------|----------------------|
----------------------|----------------------|----------------------|----------------------|


       slow                             I'm lying
--0--------------0----|------------1--------------|-------1--------------|
--1---------1---------|-------3-------------------|--3---------3---------|
--0----0--------------|---------------------------|-----------------2----|
----------------------|--0--------------0---------|----------------------|
----------------------|---------------------------|----------------------|
----------------------|---------------------------|----------------------|


  wide awake                                                         my head is spinning
------------------1---------|-------1--------------|------------0------------------------|
-------------3--------------|--3---------3---------|-------1-----------------------------|
----------------------------|-----------------2----|-------------------------------------|
--0--------------------0----|----------------------|-------------------------------------|
----------------------------|----------------------|--3--------------3-------------------|
----------------------------|----------------------|-------------------------------------|


                         over you
-------0--------------|----------------1---------|-------1--------------|------------1---------|
--1---------1---------|-----------3--------------|--3---------3---------|-------3--------------|
-----------------2----|--------------------------|-----------------3----|----------------------|
----------------------|--------------------------|----------------------|--0--------------0----|
----------------------|--1------------------1----|----------------------|----------------------|
----------------------|--------------------------|----------------------|----------------------|


  dark of night                                  no starts inside
----------------1--------------|------------1---------------------|-------1--------------|
--3------------------3---------|-------3--------------------------|--3---------3---------|
--------------------------2----|----------------------------------|-----------------2----|
-------------------------------|--0--------------0----------------|----------------------|
-------------------------------|----------------------------------|----------------------|
-------------------------------|----------------------------------|----------------------|


                 you dreaming                            next to me
------------0------------------|-------0--------------|------------------1---------|
-------1-----------------------|--1---------1---------|-------------3--------------|
-------------------------------|-----------------2----|----------------------------|
-------------------------------|----------------------|----------------------------|
--3--------------3-------------|----------------------|--1--------------------1----|
-------------------------------|----------------------|----------------------------|


                                        dont want to
-------1--------------|------------1-----------------|-------1--------------|
--3---------3---------|-------3----------------------|--3---------3---------|
-----------------3----|------------------------------|-----------------2----|
----------------------|--0--------------0------------|----------------------|
----------------------|------------------------------|----------------------|
----------------------|------------------------------|----------------------|


  dreaming                                          no dream could be as
----------------0---------|-------0--------------|----------------------------0---------|
-----------1--------------|--1---------1---------|-----------------------1--------------|
--------------------------|-----------------2----|--------------------------------------|
--------------------------|----------------------|--------------------------------------|
--3------------------3----|----------------------|--0------------------------------0----|
--------------------------|----------------------|--------------------------------------|


                         beautiful as you
-------0--------------|------------------------1---------|-------1--------------|
--1---------1---------|-------------------3--------------|--3---------3---------|
-----------------2----|----------------------------------|-----------------3----|
----------------------|----------------------------------|----------------------|
----------------------|--1--------------------------1----|----------------------|
----------------------|----------------------------------|----------------------|


   are    tell me                   what                   have i done to
-----------------------1---------|------------0---------|----------------------1---------|
------------------3---------3----|-------1---------1----|-----------------3--------------|
---------------------------------|----------------------|--------------------------------|
---------------------------------|----------------------|--0------------------------0----|
--1------------------------------|--3-------------------|--------------------------------|
---------------------------------|----------------------|--------------------------------|


                         deserve something                   this beautiful
-------1--------------|-------------------------1---------|----------------------0------------|
--3---------3---------|--------------------3---------3----|-----------------1---------1-------|
-----------------2----|-----------------------------------|-----------------------------------|
----------------------|-----------------------------------|-----------------------------------|
----------------------|--1--------------------------------|--3--------------------------------|
----------------------|-----------------------------------|-----------------------------------|


CHORUS:

  tell me ... why                        am   I    the     one your heart
-----------------------1---------|-------1--------------|----------------------1---------|
------------------3--------------|--3---------3---------|-----------------3--------------|
---------------------------------|-----------------2----|--------------------------------|
--0-------------------------0----|----------------------|--------------------------------|
---------------------------------|----------------------|--1------------------------1----|
---------------------------------|----------------------|--------------------------------|


                         belongs to                             why          me?
-------1--------------|------------------1---------|-------1--------------|------------0---------|
--3---------3---------|-------------1--------------|--1---------1---------|-------1--------------|
-----------------3----|----------------------------|-----------------2----|----------------------|
----------------------|--3--------------------3----|----------------------|----------------------|
----------------------|----------------------------|----------------------|--0--------------0----|
----------------------|----------------------------|----------------------|----------------------|


            tell me          why                        am   I    the
-------0-----------------|------------1---------|-------1--------------|
--1---------1------------|-------3--------------|--3---------3---------|
--------------------2----|----------------------|-----------------2----|
-------------------------|--0--------------0----|----------------------|
-------------------------|----------------------|----------------------|
-------------------------|----------------------|----------------------|


  one who owns place in your                                          heart
----------------------------------1---------|-------1--------------|-------------1---------|
-----------------------------3--------------|--3---------3---------|--------1--------------|
--------------------------------------------|-----------------3----|-----------------------|
--------------------------------------------|----------------------|--3---------------3----|
--1------------------------------------1----|----------------------|-----------------------|
--------------------------------------------|----------------------|-----------------------|


            why          me?                                                     tell me
-------1--------------|------------0---------|-------0--------------|------------1------------|
--1---------1---------|-------1--------------|--1---------1---------|-------3------------3----|
-----------------2----|----------------------|-----------------2----|-------------------------|
----------------------|----------------------|----------------------|-------------------------|
----------------------|--0--------------0----|----------------------|--1----------------------|
----------------------|----------------------|----------------------|-------------------------|


  why do you                   love me
------------------0---------|---------------1---------|-------1--------------|
-------------1---------1----|----------3--------------|--3---------3---------|
----------------------------|-------------------------|-----------------2----|
----------------------------|--0-----------------0----|----------------------|
--3-------------------------|-------------------------|----------------------|
----------------------------|-------------------------|----------------------|


  why is it                   me you want                                  before
-----------------1---------|-------------------0---------|------------1-----------|
------------3---------3----|--------------1---------1----|-------3----------------|
---------------------------|-----------------------------|------------------------|
---------------------------|-----------------------------|--0--------------0------|
--1------------------------|--3--------------------------|------------------------|
---------------------------|-----------------------------|------------------------|


   you came the                   days just past, but
----------------1--------------|---------------------------0---------|-------0--------------|
--3------------------3---------|----------------------1--------------|--1---------1---------|
--------------------------2----|-------------------------------------|-----------------0----|
-------------------------------|-------------------------------------|----------------------|
-------------------------------|--3-----------------------------3----|----------------------|
-------------------------------|-------------------------------------|----------------------|


  now I'm soaking                                           of each
------------------------0---------|-------0--------------|---------------1---------|
-------------------1--------------|--1---------1---------|----------3---------3----|
----------------------------------|-----------------2----|-------------------------|
----------------------------------|----------------------|-------------------------|
--0--------------------------0----|----------------------|--1----------------------|
----------------------------------|----------------------|-------------------------|


  second                             within me a thousand
--------------0---------|------------1-------------------------|-------1--------------|
---------1---------1----|-------3------------------------------|--3---------3---------|
------------------------|--------------------------------------|-----------------2----|
------------------------|--0------------------------------0----|----------------------|
--3---------------------|--------------------------------------|----------------------|
------------------------|--------------------------------------|----------------------|


  sum arise and I'm                                          praying for them
-------------------------0---------|-------0--------------|------------------------0---------|
--------------------1--------------|--1---------1---------|-------------------1--------------|
-----------------------------------|-----------------0----|----------------------------------|
-----------------------------------|----------------------|----------------------------------|
--3---------------------------3----|----------------------|--0--------------------------0----|
-----------------------------------|----------------------|----------------------------------|


                         never                   to
-------0--------------|-------------1---------|------------0---------|
--1---------1---------|--------3---------3----|-------1---------1----|
-----------------2----|-----------------------|----------------------|
----------------------|-----------------------|----------------------|
----------------------|--1--------------------|--3-------------------|
----------------------|-----------------------|----------------------|


  disappear    tell me                   what                   have i done to
----------------------------1---------|------------0---------|----------------------1---------|
-----------------------3---------3----|-------1---------1----|-----------------3--------------|
--------------------------------------|----------------------|--------------------------------|
--------------------------------------|----------------------|--0------------------------0----|
--1-----------------------------------|--3-------------------|--------------------------------|
--------------------------------------|----------------------|--------------------------------|


                         deserve something                   this beautiful
-------1--------------|-------------------------1---------|----------------------0------------|
--3---------3---------|--------------------3---------3----|-----------------1---------1-------|
-----------------2----|-----------------------------------|-----------------------------------|
----------------------|-----------------------------------|-----------------------------------|
----------------------|--1--------------------------------|--3--------------------------------|
----------------------|-----------------------------------|-----------------------------------|

CHORUS:
...

SOLO:

          Dm    Dm   Dm   Dm      Dm       C           Am   Am   Am   Am      Am       A#
-------|--1-----1----1----1----|--1--------0--------|--0----0----0----0----|--0--------1--------|
-------|--3-----3----3----3----|--3--------1--------|--1----1----1----1----|--1--------3--------|
-------|--2-----2----2----2----|--2--------0--------|--2----2----2----2----|--2--------3--------|
-------|--0-----0----0----0----|--0--------2--------|--2----2----2----2----|--2--------0--------|
-------|-----------------------|-----------3--------|--0----0----0----0----|--0--------1--------|
-------|-----------------------|--------------------|----------------------|--------------------|


  C        C           Am   Am   Am   Am      C                   Am   Am   Am   Am
--0--------0--------|--0----0----0----0----|--0----------------|--0----0----0----0----|
--1--------1--------|--1----1----1----1----|--1----------------|--1----1----1----1----|
--0--------0--------|--2----2----2----2----|--0----------------|--2----2----2----2----|
--2--------2--------|--2----2----2----2----|--2----------------|--2----2----2----2----|
--3--------3--------|--0----0----0----0----|--3----------------|--0----0----0----0----|
--------------------|----------------------|-------------------|----------------------|

  A#
--1----------------|
--3----------------|
--3----------------|
--0----------------|
--1----------------|
-------------------|

ENDING:
                     tell me why I
|---------------1------------------|-------1--------------|
|----------3-----------------------|--3--------------3----|
|----------------------------------|----------------------|
|--0-----------------0-------------|------------0---------|
|----------------------------------|----------------------|
|----------------------------------|----------------------|

  deserve           you                    tell me why I
--0-----------------1----|------------1------------------|-------1--------------|
--1------------1----3----|-------3-----------------------|--3--------------3----|
--0-------0---------3----|-------------------------------|----------------------|
-------------------------|--0--------------0-------------|------------0---------|
-------------------------|-------------------------------|----------------------|
-------------------------|-------------------------------|----------------------|


  deserve           you                    tell me why I
--0-----------------1----|------------1------------------|-------1--------------|
--1------------1----3----|-------3-----------------------|--3--------------3----|
--0-------0---------3----|-------------------------------|----------------------|
-------------------------|--0--------------0-------------|------------0---------|
-------------------------|-------------------------------|----------------------|
-------------------------|-------------------------------|----------------------|


  deserve           you     why is me
--0-----------------1----|-----------------1---------|-------1--------------|
--1------------1----3----|------------3--------------|--3--------------3----|
--0-------0---------3----|---------------------------|----------------------|
-------------------------|--0-------------------0----|------------0---------|
-------------------------|---------------------------|----------------------|
-------------------------|---------------------------|----------------------|


  me you love
--0---------------------0----||
--1----------------1---------||
--0-----------0--------------||
-----------------------------||
-----------------------------||
-----------------------------||


INTRO:
Dm C Bb
Dm C Bb
Dm C Bb
Dm C

VERSE 1:
Dm                    C                    Bb
  I'm lying wide awake, my head is spinning over you
Dm                               C               Bb
  Dark of night, no stars inside, your dreaming next to me
Dm            C                            Am                     Bb  C
  Afraid to close my eyes, 'cause i don't wanna miss a moment of you
Dm                C            Am                Bb
  Don't want to dreaming, no dream could be as beautiful as you are
Bb         C   Dm               Bb                C
 Tell me what have I done to deserve something this beautiful?

CHORUS:
        Dm            Bb               F             Am
Tell me why, am I the one your heart belongs to, why me?
        Dm            Bb                           F          Am
Tell me why, am I the one who owns a place in your heart, why me?
Bb         C          Dm       Bb              C
Tell me, why do you love me? Why is it me you want?

VERSE 2:

Dm                  C                    Am             Bb       C
Before you came the days just past, but now I'm soaking of each second.
Dm                   C              Am                    Bb    C       Bb
Within me a thousand suns arise and I'm praying for them never to disappear
        C    Dm               Bb              C
Tell me what have I done to deserve something this beautiful?

CHORUS:
        Dm            Bb               F             Am
Tell me why, am I the one your heart belongs to, why me?
        Dm            Bb                           F          Am
Tell me why, am I the one who owns a place in your heart, why me?
Bb         C          Dm       Bb              C
Tell me, why do you love me? Why is it me you want?
Bb         C      Dm            Bb    C
Tell me, why I deserve you and why I hear you say 'I love you girl'?

Solo:
Dm C Am Bb C Am C Am Bb

        Dm            Bb               F             Am
Tell me why, am I the one your heart belongs to, why me?
        Dm            Bb                           F          Am
Tell me why, am I the one who owns a place in your heart, why me?
        Dm            Bb               F             Am
Tell me why, am I the one your heart belongs to, why me?
        Dm            Bb                           F          Am
Tell me why, am I the one who owns a place in your heart, why me?

ENDING:
Dm                C   Bb    Dm              C    Bb
Tell me why I deserve you. Tell me why I deserve you.
Dm              C    Bb    Dm         C
Tell me why I deserve you. Why is it me you love?
            
Submit corrections

comments powered by Disqus
↑ Back to top | Lafee Tabs for Tell Me Why. Lyrics for acoustic guitar and electric guitar. Tablatures and chords are parodies/interpretations of the original songs. You may use it for private study, scholarship, research or language learning purposes only