» » »

Ghosts Bass tabs (ver.1)

Artists:  A B C D E F G H I J K L M N O P Q R S T U V W X Y Z # 

Ghosts Bass tabs (ver.1)

Ladytron
Rating:
0/5 (0 votes)

Hard to play? Try these video lessons and learn fast.
                ladytron - ghosts

ok so there are only 2 parts to the song for the bass
the verse/ intro/ breakdown / solo

E---------------------------------------5-5-|
A----77-7-7-7---77-7-7-7---77-7-7-7-5-5-----|
D--5----------5----------5------------------|
G-------------------------------------------|

and the chorus
E------------------------------------------|
A---------5-5-5-5---------7-7-7-7----------|
D-5-5-5-5---------7-7-7-7------------------|
G------------------------------------------|

E------------------------------------------|
A---------5-5-5-5--------------------------|
D-5-5-5-5---------7-7-7-7-7-7-7-7----------|
G------------------------------------------|



here is the order
intro x2
verse x2
chorus x1
verse x2
chorus x2
solo x4
chorus x 2
then there is a pause before resuming for 7 more bars of the verse
            
Hard to play? Try these video lessons and learn fast. | Correct




comments powered by Disqus
↑ Back to top | Tablatures and chords are parodies/interpretations of the original songs. You may use it for private study, scholarship, research or language learning purposes only