» » »

Ladytron, All The Way Tabs (ver.1)

Artists:  A B C D E F G H I J K L M N O P Q R S T U V W X Y Z # 

All The Way Tabs (ver.1)

Ladytron Tabs
Rating:
0/5 (0 votes)
All The Way lessons Tabs too difficult? Try these video lessons and learn fast
                They heard the sound of the snow falling
------------------------------------1------|
-2---------------------------1---------1---|
-------1-------------1---3-----------------|
------------3------------------------------|
-----------------4-------------------------|
-------------------------------------------|

They left the house, and started running
----------------------------------1------|
-2----------------------------1-------1--|
------1---------------1---3--------------|
-----------3-----------------------------|
----------------4------------------------|
-----------------------------------------|


They ran past the street where they fluffed their lines
----------------------------------------------1-----------|
-------2-------------------------------1-------------1----|
--1--------1--------------1------3------------------------|
----------------3-----------------------------------------|
--------------------4-------------------------------------|
----------------------------------------------------------|


Where chemistries slowly redesigned
------------------------------1-------|
--2-----------------------1------1----|
-------1---3---1---1--3---------------|
--------------------------------------|
--------------------------------------|
--------------------------------------|


All the way, the calendar froze on even number
------------------------------------------1-------|
-4---4---1--------2-------------------1------1----|
--------------1------1--3---1----1--3-------------|
--------------------------------------------------|
--------------------------------------------------|
--------------------------------------------------|


Kat caught the tones of the cold corner
-----------------------------------1-------------|
-2----------------------------1-------1----------|
------1-----3---1-----1—-3-----------------------|
-------------------------------------------------|
-------------------------------------------------|
-------------------------------------------------|

All the way, they could see it going
-------------------------------------------|
-4---4---1---------------------------------|
--------------4-----1-----1--1--1-3--------|
-------------------------------------------|
-------------------------------------------|
-------------------------------------------|

All the way, its temperature, Fahrenheit sanction
-------------------------------------------1-------|
-2---4--2-1---2--------------------------------1---|
------------------1--3----1----1-------------------|
----------------------------------4----3-----------|
---------------------------------------------------|
---------------------------------------------------|

A transparent sound, mapping distraction
-----------------------------------1------|
---2----------------------------------1---|
1------1--3-----1------1------------------|
--------------------------4----3----------|
------------------------------------------|
------------------------------------------|


All the way, it would be forever
--------------------------------------|
-4---4---1---2------------------------|
-----------------1----1---1-1-3-------|
--------------------------------------|
--------------------------------------|
--------------------------------------|


All the way
--------------|
-2--4---2-1---|
--------------|
--------------|
--------------|
--------------|

All the way, they heard the sound of the snow falling
-------------------------------------------------------|
-2--4---2-1---2----2------4--2-1--1---0---1----1---1---|
-------------------------------------------------------|
-------------------------------------------------------|
-------------------------------------------------------|
-------------------------------------------------------|


They left the house and started running
------------------------------------------|
--2---2----4---2-4---1---0---1---1---1----|
------------------------------------------|
------------------------------------------|
------------------------------------------|
------------------------------------------|

I’m gonna let you know when it's time to be leaving
-1----------------------------0----------------------|
-----2-----2---2---2-1---0---------0--------------2--|
--------------------------------------1--4----4------|
-----------------------------------------------------|
-----------------------------------------------------|
-----------------------------------------------------|

Don't run, the same goes for company this evening
-1-----------------------------0-------------------|
-------2----2---2---2--1----0-----0-------------2--|
---------------------------------------1---4--4----|
---------------------------------------------------|
---------------------------------------------------|
---------------------------------------------------|


You come here, and I disappear
-2---2-------------1--1--3-------|
-----------4----1-----------3----|
---------------------------------|
---------------------------------|
---------------------------------|
---------------------------------|

Some how I see something I fear
--2---4----------0----0--2-----|
---------4--0----------------2-|
-------------------------------|
-------------------------------|
-------------------------------|
-------------------------------|

Maybe we'll make someone’s souvenir
-2-2--------------0---0--------0----|
-------4-----0--------------4----2--|
------------------------------------|
------------------------------------|
------------------------------------|
------------------------------------|

All the way, they heard the sound of the snow falling
-2---4--2-4-------------------------------------1-----|
---------------2---------------------------1-------1--|
--------------------1----3----1----1--3---------------|
------------------------------------------------------|
------------------------------------------------------|
------------------------------------------------------|
            

comments powered by Disqus
↑ Back to top | Ladytron Tabs for All The Way. Lyrics for acoustic guitar and electric guitar. Tablatures and chords are parodies/interpretations of the original songs. You may use it for private study, scholarship, research or language learning purposes only