» » »

Lady Sovereign, Those Were The Days Bass tabs (ver.1)

Artists:  A B C D E F G H I J K L M N O P Q R S T U V W X Y Z # 

Those Were The Days Bass tabs (ver.1)

Lady Sovereign Tabs
 Rating:
3/5 (6 votes)
Those Were The Days lessons Tabs too difficult? Try these video lessons and learn fast
                -----------------------------------------------------------------------
	       THOSE WERE THE DAYS – Lady Sovereign
-----------------------------------------------------------------------


Tuning: Standard

G|---10------9-----------10------9--------|
D|----------------------------------------|
A|-8----x8\7---7/8----\8----x8\7---7\5----|
E|----------------------------------------|

G|----10------9-----------10------9--------|
D|-----------------------------------------|
A|5/8----x8\7---7/8----\8----x8\7---7/+-8-8|
E|-----------------------------------------|

Play continuously through the song. In places the bass breaks.

| /  slide up
| \  slide down
| +  harmonic
| x  Mute note
=======================================================================
            
Submit corrections

comments powered by Disqus
↑ Back to top | Lady Sovereign Bass for Those Were The Days. Lyrics for acoustic guitar and electric guitar. Tablatures and chords are parodies/interpretations of the original songs. You may use it for private study, scholarship, research or language learning purposes only