» » »

The Wolf Tabs (ver.1)

Artists:  A B C D E F G H I J K L M N O P Q R S T U V W X Y Z # 

The Wolf Tabs (ver.1)

Lady Of The Sunshine
Rating:
5/5 (1 vote)

Hard to play? Try these video lessons and learn fast.
                
This song is pretty hard to decipher cause of all the sound but i think this sounds 
close. play along with the song and see what you think

Standard Tuning

Intro
|-----10-----7------12-|
|----------------------|
|----------------------|
|----------------10----|
|--10------8-----------|
|----------------------|

Verse
|----------10--------------10---------------10--------------10-------|
|--------------------------------------------------------------------|
|-----0-------0----0---0------0---0----0-------0----0---0------0---0-|
|-----------------------------------10---10------10---9---9------9---|
|--10---10------10---8---8------8------------------------------------|
|--------------------------------------------------------------------|

little pre-chorusey bit
|--------------------------------------------------|
|--------------------------------------------------|
|--------------------------------------------------|
|--12-12-12-12-12-12-12-12-10-10-10-10-10-10-10-10-|
|--10-10-10-10-10-10-10-10-8--8--8--8--8--8--8--8--|
|--------------------------------------------------|

|--------------------------------------------------|
|--------------------------------------------------|
|--12-12-12-12-12-12-12-12-12-12-12-12-12-12-12-12-|
|--10-10-10-10-10-10-10-10-9--9--9--9--9--9--9--9--|
|--------------------------------------------------|
|--------------------------------------------------|
Play it twice

Verse 2
same as first verse

Chorus
This is how i like to play the chorus. im not sure if it is 100% but it
sounds pretty close
|--10-10-10-10-10-10-10-10-8-8-8-8-8-8-8-8----------------------------------|
|------------------------------------------8--8--8--8--8--8--8--8--6--6--6--|
|--0--0--0--0--0--0--0--0--0-0-0-0-0-0-0-0-0--0--0--0--0--0--0--0--0--0--0--|
|------------------------------------------10-10-10-10-10-10-10-10-10-10-10-|
|--10-10-10-10-10-10-10-10-8-8-8-8-8-8-8-8----------------------------------|
|---------------------------------------------------------------------------|

Interlude
|------------------------------------------|
|------------------------------------------|
|------------------------------------------|
|------------------------------------------|
|--10-10-10-10-10-10-10-10-8-8-8-8-8-8-8-8-|
|------------------------------------------|
Play 4 times


Verse 3
same as the other verses


Outro
|--10-10-10-10-10-10-10-10-12-12-12-12-12-12-12-12-|
|--------------------------------------------------|
|--0--0--0--0--0--0--0--0--0--0--0--0--0--0--0--0--|
|--------------------------------------------------|
|--10-10-10-10-10-10-10-10-10-10-10-10-10-10-10-10-|
|--------------------------------------------------|

|--------------------------------------------------|
|--12-12-12-12-12-12-12-12-8--8--8--8--8--8--8--8--|
|--0--0--0--0--0--0--0--0--0--0--0--0--0--0--0--0--|
|--------------------------------------------------|
|--10-10-10-10-10-10-10-10-10-10-10-10-10-10-10-10-|
|--------------------------------------------------|

Repeat till you fade out

i think that is pretty close

Storz
            
Hard to play? Try these video lessons and learn fast. | Correct




comments powered by Disqus
↑ Back to top | Tablatures and chords are parodies/interpretations of the original songs. You may use it for private study, scholarship, research or language learning purposes only