» » »

Ladyhawke, Paris Is Burning Bass tabs (ver.1)

Artists:  A B C D E F G H I J K L M N O P Q R S T U V W X Y Z # 

Paris Is Burning Bass tabs (ver.1)

Ladyhawke Tabs
Rating:
5/5 (5 votes)
Paris Is Burning lessons Tabs too difficult? Try these video lessons and learn fast
                ---------------------------------------------------------------------
---------------------------------------------------------------------

This is 100% correct i promise

Verse

G|---------------------------------------------------------------|
D|---------------------------------------------------------------|
A|--10-9------------------------10-9-----------------------------|
E|-------10-8---8-10-55-0-3-5--------10-8---8-10-55-7-8-10-------|


Chorus

G|---------------------------------------------------------------|
D|---------------------------------------------------------------|
A|--8888888-10---------8-----------------------------------------|
E|-------------8888888---1010101010101010-1212121212121212-------|


Bass riff before the verse
(same as start of verse)

G|------------------------------|
D|------------------------------|
A|--10-9------------------------|
E|-------10-8---8-10-55-0-3-5---|


Bridge-
'ive lost my way its hard to find it through...' (first time she sings it)

G|------------------------------------------------------------------|
D|------------------------------------------------------------------|
A|--88888888-1010101010101010---------------------------------------|
E|-----------------------------10101010101010101010101010101010-----|

Structure

verse-x4
chorus-x4
lone bass riff-x1
verse-x4
chorus-x4
bridge-x2
chorus (instrumental)-x2
chorus till the end x8


pretty sure thats bob on 
comment if ur feelin cool  

cheers!  lv greenshank (beno93)
            

comments powered by Disqus
↑ Back to top | Ladyhawke Bass for Paris Is Burning. Lyrics for acoustic guitar and electric guitar. Tablatures and chords are parodies/interpretations of the original songs. You may use it for private study, scholarship, research or language learning purposes only