» » »

Love Dont Live Here Anymore Tabs (ver.2)

Artists:  A B C D E F G H I J K L M N O P Q R S T U V W X Y Z # 

Love Dont Live Here Anymore Tabs (ver.2)

Ladyhawke
Rating:
0/5 (0 votes)

Tabs too difficult? Try these video lessons and learn fast.
                The first bit is taken from "lefthandman9876"

Verse:
|-------------------------------------|
|-------------------------------------|
|-4-4-4-4--7-7--2-2--4-4-4-4--7-7-2-2-|
|-4-4-4-4--7-7--2-2--4-4-4-4--7-7-2-2-|
|-2-2-2-2--5-5--0-0--2-2-2-2--5-5-0-0-|
|-------------------------------------|

"Love love love don't live here anymore
You say that it's a shame and show me the door
You say that you don't need me anymore
And I said"

|---------------------------------|      
|---------------------------------|      
|-5-5-5-5-5-5-5-5-3-3-3-3-3-3-3-3-|  x3
|-5-5-5-5-5-5-5-5-3-3-3-3-3-3-3-3-|      
|-3-3-3-3-3-3-3-3-5-5-5-5-5-5-5-5-|      

|---------------------------------|      
|-----------------9-9-9-9-9-9-9-9-|      
|-5-5-5-5-5-5-5-5-9-9-9-9-9-9-9-9-|  
|-5-5-5-5-5-5-5-5-7-7-7-7-7-7-7-7-|      
|-3-3-3-3-3-3-3-3-----------------|    

"Love love love don't live here any
Love love love all you want is ending
Love love love all the nights we're spending
Love love love don't live here anymore"

Chorus

|-----------------------------------------------------------------|
|-----------------------------------------------------------------|
|-4-4-4-4-4-4-4-4-4-4-4-4-4-4-6-6-7-7-7-7-7-7-7-7-7-7-7-7-7-7-7-7-|
|-4-4-4-4-4-4-4-4-4-4-4-4-4-4-6-6-7-7-7-7-7-7-7-7-7-7-7-7-7-7-7-7-|
|-2-2-2-2-2-2-2-2-2-2-2-2-2-2-4-4-5-5-5-5-5-5-5-5-5-5-5-5-5-5-5-5-|
|-----------------------------------------------------------------|

|-----------------------------------------------------------------|
|-----------------------------------------------------------------|
|---------------------------------9-9-9-9-9-9-9-9-9-9-9-9-9-9-9-9-|
|-7-7-7-7-7-7-7-7-7-7-7-7-7-7-7-7-9-9-9-9-9-9-9-9-9-9-9-9-9-9-9-9-|
|-7-7-7-7-7-7-7-7-7-7-7-7-7-7-7-7-7-7-7-7-7-7-7-7-7-7-7-7-7-7-7-7-|
|-5-5-5-5-5-5-5-5-5-5-5-5-5-5-5-5---------------------------------|

It's my first tab, but I think it's pretty close.
            
Tabs too difficult? Try these video lessons and learn fast.


comments powered by Disqus
↑ Back to top | Tablatures and chords are parodies/interpretations of the original songs. You may use it for private study, scholarship, research or language learning purposes only