>
 >
Boys Boys Boys

Boys Boys Boys Guitar Tabs

Lady Gaga - Boys Boys Boys chords, tabs, tablatures, lyrics

Guitar lessons | Add/correct | Request | Top 50 tabs Artists:  A B C D E F G H I J K L M N O P Q R S T U V W X Y Z 0-9

Boys Boys Boys Guitar Tabs – Lady Gaga

CD, Sheet music, Poster

Do you like Boys Boys Boys? Share with your friends now
Bass TabsBass Tabs v2Bass Tabs v3Bass Tabs v4ChordsChords v2TabsUkulele
Tuning: Standard, CAPO 2
[All chords/tabs are relative to capo on the second fret.]

Obviously there isn't any guitar in this song.
But you would play this along with the synth.

NOTE: In the chorus, I like playing power chords
instead of open chords. I think it sounds better.

If you want to hear how that would sound,
you'll be able to hear it in the last thirty seconds 
of this video of Lady Gaga performing 
"Boys Boys Boys" live, where there is a guitar playing:

Also, I have also tabbed "Bad Romance" and "Just Dance!"
Keep an eye on my page for more Lady Gaga tabs in the future. :)

Anyway, here's the tab!

INTRO: 
E|---------------------------------|
B|---------------------------------|
G|---------------------------------|
D|-----2-------------------2--2----|
A|---------------------------------|
E|--0-----0-[DRUM BEAT]-0--------0-|

E|---------------------------------|
B|---------------------------------|
G|---------------------------------|
D|---------------------------------|
A|-----3-----2-----0---------------|
E|--0-----0-----0-----0--3--2------|


VERSE:

Pretty simple.
Play Em throughout the whole verse, palm muted.
Or you can just repeat this during the verse:

"Hey there sugar baby saw you twice at the pop show"
E|----------|
B|----------|
G|----------|
D|-----2----|
A|----------|
E|--0-----0-|

"You taste just like glitter mixed with"
E|-------------|
B|-------------|
G|-------------|
D|-----2--2----|
A|-------------|
E|-0---------0-|

"Rock and roll"
E|---------------------------------|
B|---------------------------------|
G|---------------------------------|
D|---------------------------------|
A|-----3-----2-----0---------------|
E|--0-----0-----0-----0--3--2------|


"I like you a lot, lot"
E|----------|
B|----------|
G|----------|
D|-----2----|
A|----------|
E|--0-----0-|


"Think you're really hot, hot"
[There is just a beat during this part, no synth.]

"Know you think you're special when we"
E|-------------|
B|-------------|
G|-------------|
D|-----2--2----|
A|-------------|
E|-0---------0-|

"Dance real crazy"
E|---------------------------------|
B|---------------------------------|
G|---------------------------------|
D|---------------------------------|
A|-----3-----2-----0---------------|
E|--0-----0-----0-----0--3--2------|


"Glamophonic, electronic"
E|----------|
B|----------|
G|----------|
D|-----2----|
A|----------|
E|--0-----0-|


"Disco baby"
[There is just a beat during this part, no synth.]

"I like you a lot, lot"
E|-------------|
B|-------------|
G|-------------|
D|-----2--2----|
A|-------------|
E|-0---------0-|

"All we want is hot, hot"
E|---------------------------------|
B|---------------------------------|
G|---------------------------------|
D|---------------------------------|
A|-----3-----2-----0---------------|
E|--0-----0-----0-----0--3--2------|

[Right before the chorus starts]:
E|--------------|
B|--------------|
G|--------------|
D|--2-----2-----|
A|-----2-----2--|
E|--------------|










CHORUS:

             G
Boys, boys, boys
                 D
We like boys in cars
              C
Boys, boys, boys

Buy us drinks in bars
             G
Boys, boys, boys
                     D
With hairspray and denim
             C
Boys, boys, boys

We love them!

VERSE/whatever you'd call it:

So I should explain that for this part,
you would only play during the first "oh,"
the one's that are capitalized.
Other than those parts, it's all beat and no synth.

"OH, oh, oh, oh, oh, oh, oh, oh"
E|----------|
B|----------|
G|----------|
D|-----2----|
A|----------|
E|--0-----0-|

"OH, oh, oh, oh, oh, oh, oh, oh"
E|-------------|
B|-------------|
G|-------------|
D|-----2--2----|
A|-------------|
E|-0---------0-|

"Baby is a bad boy with some retro sneakers"
E|----------|
B|----------|
G|----------|
D|-----2----|
A|----------|
E|--0-----0-|

"Let's go see The Killers and make out"
E|-------------|
B|-------------|
G|-------------|
D|-----2--2----|
A|-------------|
E|-0---------0-|

"In the bleachers"
E|---------------------------------|
B|---------------------------------|
G|---------------------------------|
D|---------------------------------|
A|-----3-----2-----0---------------|
E|--0-----0-----0-----0--3--2------|

"I like you a lot, lot"
E|----------|
B|----------|
G|----------|
D|-----2----|
A|----------|
E|--0-----0-|


"Think you're really hot, hot"
[There is just a beat during this part, no synth.]

"Let's go to the party"
E|-------------|
B|-------------|
G|-------------|
D|-----2--2----|
A|-------------|
E|-0---------0-|

"Heard our buddy's DJ"
E|---------------------------------|
B|---------------------------------|
G|---------------------------------|
D|---------------------------------|
A|-----3-----2-----0---------------|
E|--0-----0-----0-----0--3--2------|

"Don't forget my lipstick"
E|----------|
B|----------|
G|----------|
D|-----2----|
A|----------|
E|--0-----0-|

"I left it in your ashtray." 
[There is just a beat during this part, no synth.]


"I like you a lot, lot"
E|-------------|
B|-------------|
G|-------------|
D|-----2--2----|
A|-------------|
E|-0---------0-|

"All we want is hot, hot"
E|---------------------------------|
B|---------------------------------|
G|---------------------------------|
D|---------------------------------|
A|-----3-----2-----0---------------|
E|--0-----0-----0-----0--3--2------|

[Right before the chorus starts]:
E|--------------|
B|--------------|
G|--------------|
D|--2-----2-----|
A|-----2-----2--|
E|--------------|



CHORUS:

             G
Boys, boys, boys
                 D
We like boys in cars
              C
Boys, boys, boys

Buy us drinks in bars
             G
Boys, boys, boys
                     D
With hairspray and denim
             C
Boys, boys, boys

We love them!

             G
Boys, boys, boys
                 D
We like boys in cars
              C
Boys, boys, boys

Buy us drinks in bars
             G
Boys, boys, boys
                     D
With hairspray and denim
             C
Boys, boys, boys

We love them!

BRIDGE:

"I'm not loose, I like to party"
E|--------------------------|
B|--------------------------|
G|--------------------------|
D|--------------------------|
A|--------------------0--2--|
E|--0--0--2--2--3--3--------|

"Let's get lost in your Ferrari"			
E|--------------------------|
B|--------------------------|
G|--------------------------|
D|--------------------------|
A|--------------------2--3--|
E|--0--0--2--2--3--3--------|

"Not psychotic or dramatic"
E|--------------------------|
B|--------------------------|
G|--------------------------|
D|--------------------------|
A|--------------------0--2--|
E|--0--0--2--2--3--3--------|
			
"I like boys and that is that"
E|--------------------------|
B|--------------------------|
G|--------------------------|
D|--2--2--0--0--------------|
A|--------------3--3--3--2--|
E|--------------------------|
			
"Love it when you call me legs"
E|--------------------------|
B|--------------------------|
G|--------------------------|
D|--------------------------|
A|--------------------0--2--|
E|--0--0--2--2--3--3--------|

"In the morning, buy me eggs"			
E|--------------------------|
B|--------------------------|
G|--------------------------|
D|--------------------------|
A|--------------------2--3--|
E|--0--0--2--2--3--3--------|

"Watch your heart when we're together"
E|--------------------------|
B|--------------------------|
G|--------------------------|
D|--------------------------|
A|--------------------0--2--|
E|--0--0--2--2--3--3--------|
			
"Boys like you love me forever"
E|--------------------------|
B|--------------------------|
G|--------------------------|
D|--2--2--0--0--------------|
A|--------------3--3--3--2--|
E|--------------------------|


"Oh, oh, oh, oh, oh, oh, oh, oh"

Here is the tab for the whole section with the "oh"'s in it.
The whole thing is played twice.

E|--------------------------|
B|--------------------------|
G|--------------------------|
D|--------------------------|
A|--------------------0--2--|
E|--0--0--2--2--3--3--------|

E|--------------------------|
B|--------------------------|
G|--------------------------|
D|--------------------------|
A|--------------------2--3--|
E|--0--0--2--2--3--3--------|

E|--------------------------|
B|--------------------------|
G|--------------------------|
D|--------------------------|
A|--------------------0--2--|
E|--0--0--2--2--3--3--------|

E|--------------------------|
B|--------------------------|
G|--------------------------|
D|--2--2--0--0--------------|
A|--------------3--3--3--2--|
E|--------------------------|

            G
Boys, boys, boys
                 D
We like boys in cars
              C
Boys, boys, boys

Buy us drinks in bars
             G
Boys, boys, boys
                     D
With hairspray and denim
             C
Boys, boys, boys

We love them!

            G
Boys, boys, boys
                 D
We like boys in cars
              C
Boys, boys, boys

Buy us drinks in bars
             G
Boys, boys, boys
                     D
With hairspray and denim
             C
Boys, boys, boys

We love them!

            G
Boys, boys, boys
                 D
We like boys in cars
              C
Boys, boys, boys

Buy us drinks in bars
             G
Boys, boys, boys
                     D
With hairspray and denim
             C
Boys, boys, boys

We love them!

//// That's it! Please rate!
And don't forget to check out my other Lady Gaga tabs!





Comments


Popular Lady Gaga tabs & chords
Alejandro Chords
Americano 3 Chords
Bad Romance 4 Chords
Edge Of Glory 7 Chords
Judas 4 Chords
Princess Die Chords
Bad Romance 10 Tabs
Fever Ukulele
Just Dance Ukulele
Just Dance Intro Ukulele


Song lyrics



↑ Back to top | Tablatures and chords are parodies/interpretations of the original songs. You may use it for private study, scholarship, research or language learning purposes only
© 2014 AZChords.com Contact us | Privacy policy | DMCA | Add/correct tabs | Request tabs | Top 50 tabs