» » »

Lady Antebellum, Need You Now Tabs (ver.2)

Artists:  A B C D E F G H I J K L M N O P Q R S T U V W X Y Z # 

Need You Now Tabs (ver.2)

Lady Antebellum Tabs
 Rating:
4/5 (4 votes)
Need You Now lessons Tabs too difficult? Try these video lessons and learn fast
1
                (/) Slide Up
(\) Slide Down
(h) Hammer On
(p) Pull Off
(b) Bend
(r) Release
(v) Vibrato

Lady Antebellum
Lead Guitar Part

Intro
E|--------4--------------------------------------------------------|
B|-----5-----------------------------------------------------------|
G|--4--------4h6--6--4h6--6p4--4h6--6--4h6--9--11--13b14r13b14r13--|
D|-----------------------------------------------------------------|
A|-----------------------------------------------------------------|
E|-----------------------------------------------------------------|

Verse
E|--------4-----------------------------------------------------------|
B|-----5--------------------------------------------------------------|
G|--4-----------------------------------------------------------------|
D|-------------------------------------------------------4/6--4\2-----|
A|------------------------------------------2/4--------------------0--|
E|--------------------------------------------------------------------|

E|---------------------------------------------------------------------|
B|---------------------------------------------------------------------|
G|---------------------------------------------------------------------|
D|--------------------------------------------2--1/4--2----------------|
A|------------------------------------------------------------------0--|
E|---------------------------------------------------------------------|

Chorus
E|--------------------|
B|--5/12\9------12\5--|
G|--------------------|
D|--------------------|
A|--------------------|
E|--------------------|

E|-------------|
B|--12\9/14\9--|
G|-------------|
D|-------------|
A|-------------|
E|-------------|

E|---------10/12--|
B|--10/12---------|
G|----------------|
D|----------------|
A|----------------|
E|----------------|

Prelude to verse
E|------------------------------------------------------------|
B|------------------------------------------------------------|
G|--4h6--6--4h6--6p4--4h6--6--4h6--9--11--13b14r13--11--9-----|
D|---------------------------------------------------------7--|
A|------------------------------------------------------------|
E|------------------------------------------------------------|

Tinkering during verse (be creative)
E|------------|
B|------------|
G|--9p8--9p8--|
D|------------|
A|------------|
E|------------|

Chorus
E|--------------------|
B|--5/12\9------12\5--|
G|--------------------|
D|--------------------|
A|--------------------|
E|--------------------|

E|-------------|
B|--12\9/14\9--|
G|-------------|
D|-------------|
A|-------------|
E|-------------|

Solo
E|--12--14/16--16--14p12--14/16--12h14--11h14--11h14------|
B|----------------------------------------------------12--|
G|--------------------------------------------------------|
D|--------------------------------------------------------|
A|--------------------------------------------------------|
E|--------------------------------------------------------|

E|------9h11/12/14/16--18b19--19--18b19--19--19--16--16--16--18b19--19--19--12--12h14b16--16--|
B|--12----------------------------------------------------------------------------------------|
G|--------------------------------------------------------------------------------------------|
D|--------------------------------------------------------------------------------------------|
A|--------------------------------------------------------------------------------------------|
E|--------------------------------------------------------------------------------------------|

Chorus
E|---------------------------10/12--|
B|--9/12/14--14\9--9--10/12---------|
G|----------------------------------|
D|----------------------------------|
A|----------------------------------|
E|----------------------------------|

Ending
E|--16v--v--v--14--12--11--11h12------11h12----11h12p11h12p11/14--14\11--|
B|--------------------------------12-------------------------------------|
G|-----------------------------------------------------------------------|
D|-----------------------------------------------------------------------|
A|-----------------------------------------------------------------------|
E|-----------------------------------------------------------------------|

E|--16--16--16--19v--v--v--12--12----12p11h12--12/14--14\11/12--12\7/19--|
B|-----------------------------------------------------------------------|
G|-----------------------------------------------------------------------|
D|-----------------------------------------------------------------------|
A|-----------------------------------------------------------------------|
E|-----------------------------------------------------------------------|
            
Submit corrections

comments powered by Disqus
↑ Back to top | Lady Antebellum Tabs for Need You Now. Lyrics for acoustic guitar and electric guitar. 1 Tablatures and chords are parodies/interpretations of the original songs. You may use it for private study, scholarship, research or language learning purposes only