>
 >
I Run To You 1

I Run To You 1 Bass Tabs

Lady Antebellum - I Run To You 1 chords, tabs, tablatures, lyrics

Guitar lessons | Add/correct | Request | Top 50 tabs Artists:  A B C D E F G H I J K L M N O P Q R S T U V W X Y Z 0-9

I Run To You 1 Bass Tabs – Lady Antebellum

CD, Sheet music, Poster

Do you like I Run To You 1? Share with your friends now
Bass TabsBass Tabs v2ChordsChords v2Chords v3Chords v4TabsTabs v2Ukulele
Run to You
Lady Antebellum-
This is my own work as I hear it from the recordings. This is the extended
ending version.  There are two.  One with the voice fading (this one).
And, the quick end.
--------------------------------------------------------------------------------
BASS Guitar
Intro:
G|--------------------|--------------|-----10 12---|13 12 10---|
D|13 12 13 12 13 12 10|--------------|10 13 -----13|---------13|
A|--------------------|13 13 13 13 13|-------------|-----------|
E|-------------------------------------------------|-----------|

G|--------------------|--------------|-----10 12---|13 15 15 15|
D|13 12 13 12 13 12 10|--------------|10 13 -----13|-----------|
A|--------------------|13 13 13 13 13|-------------|-----------|
E|-------------------------------------------------|-----------|

Verse: Two times though.
Charles Kelly sings first
Then Hillary Scott
G|--------|33333333|--------|11111111|--------|33333333|--------|11111111|
D|11111111|--------|33333333|--------|11111111|--------|33333333|--------|
A|--------|--------|--------|--------|--------|--------|--------|--------|
E|--------|--------|--------|--------|--------|--------|--------|--------|

 Pre Chorus
When lives become the truth
G|3------|-------|3------|-------|3333|3333|<= Tempo changed
D|-------|3------|-------|3------|----|----|
A|-------|-------|-------|-------|----|----|
E|-------|-------|-------|-------|----|----|

Chorus: first time
This world is spinning faster
G|----|--88|8753|3-33|3-33|----|1-11|----|--88|8753|3-33|3-33\8|----|1-11|
D|1-11|1\--|----|---g|---g 3-33|----|1-11|1\--|----|---g|---g  |3-33|----|
A|----|----|----|----|----|---g|----|----|----|----|----|------|---g|----|
E|----|----|----|----|----|----|----|----|----|----|----|------|----|----|

Start of second Intro
G|--------------------|--------------|-----10 12---|13---|
D|13 12 13 12 13 12 10|--------------|10 13 -----13|-----|
A|--------------------|13 13 13 13 13|-------------|-----|
E|-------------------------------------------------|-----|

Verse:
Both Hillary and Charles:
We run.on fumes
G|--------|33333333|--------|11111111|--------|33333333|--------|11111111|
D|11111111|--------|33333333|--------|11111111|--------|33333333|--------|
A|--------|--------|--------|--------|--------|--------|--------|--------|
E|--------|--------|--------|--------|--------|--------|--------|--------|

Pre Chorus:
Our love’s the only truth
G|33—33-|33—33-|------|------|33—33-|33—33-|----|3333|3333|
D|--3--3|--3--3|33-33-|33-33-|--3--3|--3--3|3333|----|----|
A|------|------|--3--3|--3--3|------|------|----|----|----|
E|------|------|------|------|------|------|----|----|----|

Chorus: second time
G|----|--88|8753|3-33|3-33|----|1-11|----|--88|8753|3-33|3-33\8|----|1-11|
D|1-11|1\--|----|---g|---g 3-33|----|1-11|1\--|----|---g|---g  |3-33|----|
A|----|----|----|----|----|---g|----|----|----|----|----|------|---g|----|
E|----|----|----|----|----|----|----|----|----|----|----|------|----|----|

Bridge:
                | Ohhh whaooo  |oh I run to you
G|1111|----|3333|5555|1111|----|3333|1111|----|3333|5555|----|3333|3332|
D|----|1111|----|----|----|1111|----|----|1111|----|----|3333|----|----|1
A|----|----|----|----|----|----|----|----|----|----|----|----|----|----|
E|----|----|----|----|----|----|----|----|----|----|----|----|----|----|

Outtro:
this world keeps spinning faster \  (this is done a capella)
To an new disaster so I          /
 |Run <=  start playing on “Run”)
G|1-1/(17)-repeat slide from about 10 to 17 twice|
D|-------|--------------|--------|--------|----|
A|--------|--------------|--------|--------|---|
E|--------|--------------|--------|--------|---|

when it all starts commin undone……<=Lyrics portion
G|----|--88|8753|3-33|3-33|----|1111|1111|3333|3333|
D|1-11|1\--|----|---g|---g 3-33|----|----|----|----|
A|----|----|----|----|----|---g|----|----|----|----|
E|----|----|----|----|----|----|----|----|----|----|


G|----|--88|8753|3-33|3-33|----|1111|1111|1\8-\(17---|
D|1-11|1\--|----|---g|---g 3-33|----|----|----|------|
A|----|----|----|----|----|---g|----|----|----|------|
E|----|----|----|----|----|----|----|----|----|------|

These are all double digit notes
G|17-19|16-17-19-21|--17-19-21-19|
D|--------|--------|16-----------|
A|--------|----------------------|
E|--------|----------------------|





Comments


Popular Lady Antebellum tabs & chords
Better Man Bass Tabs
Get To Me Bass Tabs
If I Knew Then 1 Chords
Just A Kiss 4 Chords
Need You Now (correct Tuning And Capo) Chords
Our Kind Of Love 1 Chords
Own The Night Tabs
Get To Me Ukulele
Love Ive Found In You Ukulele
Stars Tonight Ukulele


Song lyrics



↑ Back to top | Tablatures and chords are parodies/interpretations of the original songs. You may use it for private study, scholarship, research or language learning purposes only
© 2014 AZChords.com Contact us | Privacy policy | DMCA | Add/correct tabs | Request tabs | Top 50 tabs