>
 >
Hello World

Hello World Guitar Tabs

Lady Antebellum - Hello World chords, tabs, tablatures, lyrics

Guitar lessons | Add/correct | Request | Top 50 tabs Artists:  A B C D E F G H I J K L M N O P Q R S T U V W X Y Z 0-9

Hello World Guitar Tabs – Lady Antebellum

CD, Sheet music, Poster

Do you like Hello World? Share with your friends now
ChordsChords v2TabsUkulele
----------------------------------------------------------------------------
----------------------------------------------------------------------------
Standard tuning; Capo on the 3rd fret.

    C                               G
e|--------3------1-----0---------|--3-----1----0----------------------------|
B|------------1------1---1-------|--0-0----0------3---1---0-----------------|
G|------0------0------0---0------|--0--0----0------0---0--------------------|
D|----2--------------------------|--0---------------0---0-------------------|
A|--3----------------------------|--2---------------------------------------|
E|-------------------------------|--3---------------------------------------|

    Am                              F
e|------3-----1------0-----------|-------3------1-----0---------------------|
B|---------1------1-----1--------|-----------1-----1-----1------------------|
G|----2-----2------2-----2-------|-----2------2-----2-----2-----------------|
D|---2---------------------------|----3-------------------------------------|
A|--0----------------------------|------------------------------------------|
E|-------------------------------|--1---------------------------------------|
        Traffic crawls...            Cell phone calls...

    C                               G
e|--------3------1-----0---------|-----------------3------------------------|
B|------------1------1---1-------|-----------0----------------1-------------|
G|------0------0------0---0------|-------------0------0----------0----------|
D|----2--------------------------|--------0------0-------0------------------|
A|--3----------------------------|-----2------------------------------------|
E|-------------------------------|--3---------------------------------------|
       Talk radio screams at me, but through my tinted window I see

    Am                              F
e|------3-----1------0-----------|-------3------1-----0---------------------|
B|---------1------1-----1--------|-----------1-----1-----1------------------|
G|----2-----2------2-----2-------|-----2------2-----2-----2-----------------|
D|---2---------------------------|----3-------------------------------------|
A|--0----------------------------|------------------------------------------|
E|-------------------------------|--1---------------------------------------|
         Little girl...                  rust-red minivan, she's got

    C                               G
e|--------3------1-----0---------|-----------------3------------------------|
B|------------1------1---1-------|-----------0----------------1-------------|
G|------0------0------0---0------|-------------0------0----------0----------|
D|----2--------------------------|--------0------0-------0------------------|
A|--3----------------------------|-----2------------------------------------|
E|-------------------------------|--3---------------------------------------|
          Chocolate on her face,        she's got little hands and she

    F                               F
e|-------------------------------|---------------------------1--------------|
B|---------1--------------1------|--------1------------------1--------------|
G|-----------2---2----------2---2|----------2---2------------2--------------|
D|-------3-----3--------3-----3--|------3-----3--------------3--------------|
A|----3---------------3----------|----3----------------------3--------------|
E|--1---------------1------------|--1------------------------1--------------|
   waves at me,            yeah she smiles at me...                    Hello

    C                              Am
e|---------3-----1------0--------|------3-----1------0----------------------|
B|------------1-----1----1-------|---------1-----1------1-------------------|
G|------0------0-----0----0------|----2-----2-----2------2------------------|
D|----2--------------------------|---2--------------------------------------|
A|--3----------------------------|--0---------------------------------------|
E|-------------------------------|------------------------------------------|
    World....           How've you  Been?                Good to

    F       C       Dm      C       F                 G
e|--1-------0-------1-------0----|--------1--------------------3------------|
B|--1-------1-------3-------1----|----------1---------------------0---------|
G|--2-------0-------2-------0----|------------2----------------------0------|
D|--3-------2-------0-------2----|------3-------3-----------0-----------0---|
A|--3-------3---------------3----|----3------------------2------------------|
E|--1----------------------------|--1-----------------3---------------------|
   see     you      my     old     friend.                  Sometimes  I

    C                              Am
e|---------3-----1-----0---------|------3-----1-----0-----------------------|
B|------------1-----1-----1------|---------1-----1----1---------------------|
G|------0------0-----0-----0-----|----2-----2-----2----2--------------------|
D|----2--------------------------|---2--------------------------------------|
A|--3----------------------------|--0---------------------------------------|
E|-------------------------------|------------------------------------------|
   feel                cold as     steel,               And

    F      C         Dm       C     F               G
e|--1------0---------1--------0--|--------1------------------3--------------|
B|--1------1---------3--------1--|----------1------------------0------------|
G|--2------0---------2--------0--|------------2------------------0----------|
D|--3------2---------0--------2--|------3-------3---------0--------0--------|
A|--3------3------------------3--|----3----------------2--------------------|
E|--1----------------------------|--1---------------3-----------------------|
 Broken  like I'm   never   gonna  heal...                  I see a little

    F             G                 F                  F
e|-----1----------------3--------|--------1------------1--------------------|
B|-------1----------------0------|----------1----------1--------------------|
G|---------2----------------0----|------------2--------2--------------------|
D|----3------3-------0--------0--|------3-------3------3--------------------|
A|---3--------------2------------|----3----------------3--------------------|
E|--1-------------3--------------|--1------------------1--------------------|
  light, a little hope, in a little girl...                 Hello

    C                                   G
e|--X-X-X-3-3-3-3-1-1-1-1-0-0-0-0-0--|--3-3-3-1-1-1-0-0-X-X-X-X-X-X-X-X-----|
B|--1-1-1-1-1-1-1-1-1-1-1-1-1-1-1-1--|--0-0-0-0-0-0-0-0-3-3-3-1-1-1-0-0-----|
G|--0-0-0-0-0-0-0-0-0-0-0-0-0-0-0-0--|--0-0-0-0-0-0-0-0-0-0-0-0-0-0-0-0-----|
D|--2-2-2-2-2-2-2-2-2-2-2-2-2-2-2-2--|--0-0-0-0-0-0-0-0-0-0-0-0-0-0-0-0-----|
A|--3-3-3-3-3-3-3-3-3-3-3-3-3-3-3-3--|--2-2-2-2-2-2-2-2-2-2-2-2-2-2-2-2-----|
E|-----------------------------------|--3-3-3-3-3-3-3-3-3-3-3-3-3-3-3-3-----|
   World.

    Am                                  F
e|--X-X-X-3-3-3-3-1-1-1-1-0-0-0-0-0--|--X-X-X-3-3-3-3-1-1-1-1-0-0-0-0-0-----|
B|--1-1-1-1-1-1-1-1-1-1-1-1-1-1-1-1--|--1-1-1-1-1-1-1-1-1-1-1-1-1-1-1-1-----|
G|--2-2-2-2-2-2-2-2-2-2-2-2-2-2-2-2--|--2-2-2-2-2-2-2-2-2-2-2-2-2-2-2-2-----|
D|--2-2-2-2-2-2-2-2-2-2-2-2-2-2-2-2--|--3-3-3-3-3-3-3-3-3-3-3-3-3-3-3-3-----|
A|--0-0-0-0-0-0-0-0-0-0-0-0-0-0-0-0--|--X-X-X-X-X-X-X-X-X-X-X-X-X-X-X-X-----|
E|-----------------------------------|--1-1-1-1-1-1-1-1-1-1-1-1-1-1-1-1-----|
          Everyday    I   drive by     a little white church, it's got these

    C                                   G
e|--X-X-X-3-3-3-3-1-1-1-1-0-0-0-0-0--|--X-X-X-X-X-X-X-X-X-X-X-X-X-X-X-X-----|
B|--1-1-1-1-1-1-1-1-1-1-1-1-1-1-1-1--|--0-0-0-0-0-0-0-0-0-1-1-1-1-0-0-1-----|
G|--0-0-0-0-0-0-0-0-0-0-0-0-0-0-0-0--|--0-0-0-0-0-0-0-0-0-0-0-0-0-0-0-0-----|
D|--2-2-2-2-2-2-2-2-2-2-2-2-2-2-2-2--|--0-0-0-0-0-0-0-0-0-0-0-0-0-0-0-0-----|
A|--3-3-3-3-3-3-3-3-3-3-3-3-3-3-3-3--|--2-2-2-2-2-2-2-2-2-2-2-2-2-2-2-2-----|
E|-----------------------------------|--3-3-3-3-3-3-3-3-3-3-3-3-3-3-3-3-----|
          Little white crosses, like    angels in the yard.  Maybe I should

    Am                                  F
e|--X-X-X-3-3-3-3-1-1-1-1-0-0-0-0-0--|--X-X-X-3-3-3-3-1-1-1-1-0-0-0-0-0-----|
B|--1-1-1-1-1-1-1-1-1-1-1-1-1-1-1-1--|--1-1-1-1-1-1-1-1-1-1-1-1-1-1-1-1-----|
G|--2-2-2-2-2-2-2-2-2-2-2-2-2-2-2-2--|--2-2-2-2-2-2-2-2-2-2-2-2-2-2-2-2-----|
D|--2-2-2-2-2-2-2-2-2-2-2-2-2-2-2-2--|--3-3-3-3-3-3-3-3-3-3-3-3-3-3-3-3-----|
A|--0-0-0-0-0-0-0-0-0-0-0-0-0-0-0-0--|--X-X-X-X-X-X-X-X-X-X-X-X-X-X-X-X-----|
E|-----------------------------------|--1-1-1-1-1-1-1-1-1-1-1-1-1-1-1-1-----|
          Stop on in...                       Say a prayer...

    C                                   G
e|--X-X-X-3-3-3-3-1-1-1-1-0-0-0-0-0--|--X-X-X-X-X-X-X-X-X-X-X-X-X-X-X-X-----|
B|--1-1-1-1-1-1-1-1-1-1-1-1-1-1-1-1--|--0-0-0-0-0-0-0-0-0-1-1-1-1-0-0-1-----|
G|--0-0-0-0-0-0-0-0-0-0-0-0-0-0-0-0--|--0-0-0-0-0-0-0-0-0-0-0-0-0-0-0-0-----|
D|--2-2-2-2-2-2-2-2-2-2-2-2-2-2-2-2--|--0-0-0-0-0-0-0-0-0-0-0-0-0-0-0-0-----|
A|--3-3-3-3-3-3-3-3-3-3-3-3-3-3-3-3--|--2-2-2-2-2-2-2-2-2-2-2-2-2-2-2-2-----|
E|-----------------------------------|--3-3-3-3-3-3-3-3-3-3-3-3-3-3-3-3-----|
          Maybe talk to God like              He is there...  Oh I

    F                                   F
e|--X-X-X-X-X-X-X-X-X-X-X-X-X-X-X-X--|--X-X-X-X-X-X-X-X-X-X-X-X-X-X-X-X-----|
B|--1-1-1-1-1-1-1-1-1-1-1-1-1-1-1-1--|--1-1-1-1-1-1-1-1-1-1-1-1-1-1-1-1-----|
G|--2-2-2-2-2-2-2-2-2-2-2-2-2-2-2-2--|--2-2-2-2-2-2-2-2-2-2-2-2-2-2-2-2-----|
D|--3-3-3-3-3-3-3-3-3-3-3-3-3-3-3-3--|--3-3-3-3-3-3-3-3-3-3-3-3-3-3-3-3-----|
A|--3-3-3-3-3-3-3-3-3-3-3-3-3-3-3-3--|--3-3-3-3-3-3-3-3-3-3-3-3-3-3-3-3-----|
E|--1-1-1-1-1-1-1-1-1-1-1-1-1-1-1-1--|--1-1-1-1-1-1-1-1-1-1-1-1-1-1-1-1-----|
    know     He's    there... Yeah I    know    He's   there...  Hello

    C                                   Am
e|--0-0-0-0-0-0-0-0-0-0-0-0-0-0-0-0--|--0-0-0-0-0-0-0-0-0-0-0-0-0-0-0-0-----|
B|--1-1-1-1-1-1-1-1-1-1-1-1-1-1-1-1--|--1-1-1-1-1-1-1-1-1-1-1-1-1-1-1-1-----|
G|--0-0-0-0-0-0-0-0-0-0-0-0-0-0-0-0--|--2-2-2-2-2-2-2-2-2-2-2-2-2-2-2-2-----|
D|--2-2-2-2-2-2-2-2-2-2-2-2-2-2-2-2--|--2-2-2-2-2-2-2-2-2-2-2-2-2-2-2-2-----|
A|--3-3-3-3-3-3-3-3-3-3-3-3-3-3-3-3--|--0-0-0-0-0-0-0-0-0-0-0-0-0-0-0-0-----|
E|-----------------------------------|--------------------------------------|
    World.              How've you      been?                   Good to

    F       C       Dm      C           F               G
e|--X-X-X-X-0-0-0-0-1-1-1-1-0-0-0-0--|--X-X-X-X-X-X-X-X-X-X-X-X-X-X-X-X-----|
B|--1-1-1-1-1-1-1-1-3-3-3-3-1-1-1-1--|--1-1-1-1-1-1-1-1-0-0-0-0-0-0-0-0-----|
G|--2-2-2-2-0-0-0-0-2-2-2-2-0-0-0-0--|--2-2-2-2-2-2-2-2-0-0-0-0-0-0-0-0-----|
D|--3-3-3-3-2-2-2-2-0-0-0-0-2-2-2-2--|--3-3-3-3-3-3-3-3-0-0-0-0-0-0-0-0-----|
A|--3-3-3-3-3-3-3-3---------3-3-3-3--|--3-3-3-3-3-3-3-3-2-2-2-2-2-2-2-2-----|
E|--1-1-1-1--------------------------|--1-1-1-1-1-1-1-1-3-3-3-3-3-3-3-3-----|
    see     you     my      old         friend.            Sometimes I

 C                                   Am
e|--0-0-0-0-0-0-0-0-0-0-0-0-0-0-0-0--|--0-0-0-0-0-0-0-0-0-0-0-0-0-0-0-0-----|
B|--1-1-1-1-1-1-1-1-1-1-1-1-1-1-1-1--|--1-1-1-1-1-1-1-1-1-1-1-1-1-1-1-1-----|
G|--0-0-0-0-0-0-0-0-0-0-0-0-0-0-0-0--|--2-2-2-2-2-2-2-2-2-2-2-2-2-2-2-2-----|
D|--2-2-2-2-2-2-2-2-2-2-2-2-2-2-2-2--|--2-2-2-2-2-2-2-2-2-2-2-2-2-2-2-2-----|
A|--3-3-3-3-3-3-3-3-3-3-3-3-3-3-3-3--|--0-0-0-0-0-0-0-0-0-0-0-0-0-0-0-0-----|
E|-----------------------------------|--------------------------------------|
    feel                cold    as      steel,                    and

    F       C       Dm      C           F               G
e|--X-X-X-X-0-0-0-0-1-1-1-1-0-0-0-0--|--X-X-X-X-X-X-X-X-X-X-X-X-X-X-X-X-----|
B|--1-1-1-1-1-1-1-1-3-3-3-3-1-1-1-1--|--1-1-1-1-1-1-1-1-0-0-0-0-0-0-0-0-----|
G|--2-2-2-2-0-0-0-0-2-2-2-2-0-0-0-0--|--2-2-2-2-2-2-2-2-0-0-0-0-0-0-0-0-----|
D|--3-3-3-3-2-2-2-2-0-0-0-0-2-2-2-2--|--3-3-3-3-3-3-3-3-0-0-0-0-0-0-0-0-----|
A|--3-3-3-3-3-3-3-3---------3-3-3-3--|--3-3-3-3-3-3-3-3-2-2-2-2-2-2-2-2-----|
E|--1-1-1-1--------------------------|--1-1-1-1-1-1-1-1-3-3-3-3-3-3-3-3-----|
  Broken  like I'm  never   gonna       heal...                   See a

    F               G                   F               F (Let ring...)
e|--X-X-X-X-X-X-X-X-X-X-X-X-X-X-X-X--|--X-X-X-X-X-X-X-X-X-------------------|
B|--1-1-1-1-1-1-1-1-0-0-0-0-0-0-0-0--|--1-1-1-1-1-1-1-1-1-------------------|
G|--2-2-2-2-2-2-2-2-0-0-0-0-0-0-0-0--|--2-2-2-2-2-2-2-2-2-------------------|
D|--3-3-3-3-3-3-3-3-0-0-0-0-0-0-0-0--|--3-3-3-3-3-3-3-3-3-------------------|
A|--3-3-3-3-3-3-3-3-2-2-2-2-2-2-2-2--|--3-3-3-3-3-3-3-3-3-------------------|
E|--1-1-1-1-1-1-1-1-3-3-3-3-3-3-3-3--|--1-1-1-1-1-1-1-1-1-------------------|
  light, little grace, little faith   unfurl...               Hello


  C (16th notes for one full measure)
World.
         Bb
Sometimes I forget what living's for
      F
And I hear my life through my front door
         Dm       C        Am   G F
And I'll be there,  Oh I'm home a-gain


       F            G           F
See my wife, little boy, little girl,
            C
Well, hello world.


         Am                  F
Well the empty disappears, I remember why I'm here
        C                      Am
Just surrender and believe, I fall down on my knees
          F            G            Am     G F
And hello world, hello world, hello world





Comments


Popular Lady Antebellum tabs & chords
As You Turn Away Chords
Dancing Away With My Heart 1 Chords
Hello World 1 Chords
Love Ive Found In You Chords
Need You Now 6 Chords
Just A Kiss (piano Intro Tabbed For Guitar) Tabs
Need You Now 1 Tabs
Star's Tonight Tabs
Long Gone Ukulele
Wanted You More Ukulele


Song lyrics



↑ Back to top | Tablatures and chords are parodies/interpretations of the original songs. You may use it for private study, scholarship, research or language learning purposes only
© 2014 AZChords.com Contact us | Privacy policy | DMCA | Add/correct tabs | Request tabs | Top 50 tabs