» » »

La Dispute, Why It Scares Me Tabs (ver.1)

Artists:  A B C D E F G H I J K L M N O P Q R S T U V W X Y Z # 

Why It Scares Me Tabs (ver.1)

La Dispute Tabs
 Rating:
4.2/5 (5 votes)
Why It Scares Me lessons Tabs too difficult? Try these video lessons and learn fast
1
                ----------------------------------------------------------------------------
----------------------------------------------------------------------------



Tuning: Standard


Intro:

E|----------------------|
B|--3333333333333333----|
G|--xxxxxxxxxxxxxxxx----| 
D|--2222222222222222----|
A|----------------------|
E|----------------------| 

E|--------------------------------------|
B|--3333333333333333-333333333-3333333--|
G|--4444444444444444-222222222-5555555--| 
D|--2222222222222222-222222222-2222222--|
A|--------------------------------------|
E|--------------------------------------| x4


Figure 1:

E|------------------|
B|------------------|
G|------------------| 
D|-22222222222222---|
A|-22222222222222---|
E|-00000000000000---| 

E|--------------------------------------|
B|--------------------------------------|
G|--------------------------------------| 
D|-22222222-----------------------------|
A|-22222222-2222-2222-33333333333-2222--|
E|-00000000-3333-2222-55555555555-3333--| x4


Figure 2:

E|-------------------|
B|-3~--3~-3~-3~--3~--|
G|-x~--4~-2~-5~--5~--| 
D|-2~--2~-2~-2~--2~--|
A|-2~--2~-2~-2~--2~--|
E|-------------------| x2

E|-----------0-//3--------|
B|-3~--3~-3~-3~--3~-------|
G|-x~--4~-2~-5~--5~--7*---| 
D|-2~--2~-2~-2~--2~----7*-|
A|-2~--2~-2~-2~--2~-------|
E|------------------------| x2

Upstrokes:

E|-0~-----0~--|
B|-3~-----3~--|
G|-4~-----4~--|
D|-2~-----0~--|
A|-2~---------|
E|-0~---------| x4


Figure 3:

E|-------------------------------------|
B|-------------------------------------|
G|----------4444-4444-555555555555555--| 
D|-22222222-xxxx-xxxx-xxxxxxxxxxxxxxx--|
A|-22222222-2222-2222-333333333333333--|
E|-00000000-3333-2222-555555555555555--| x4


Figure 4:

E|------------------------------------|
B|------------------------------------|
G|------------------------------------|
D|-10-101010\9-99/7-7/5-55-2h5-5-55//-|
A|------------------------------------|
E|------------------------------------|

E|---------------------------------|
B|------8--------------------------|
G|-------9----9--------------------|
D|-10-10--10p9-9/7-7/-5-55/2-5-5---|
A|---------------------------------|
E|---------------------------------| x4


End:


E|-----------------------------|
B|------8----------------------|
G|-------9----9----------------|
D|-10-10--10p9-9/7-7/-5-5~~~---|
A|----------------------3~~~---|
E|-----------------------------|
            
Submit corrections

comments powered by Disqus
↑ Back to top | La Dispute Tabs for Why It Scares Me. Lyrics for acoustic guitar and electric guitar. 1 Tablatures and chords are parodies/interpretations of the original songs. You may use it for private study, scholarship, research or language learning purposes only