» » »

To Withstand The Force Of Storms Tabs (ver.1)

Artists:  A B C D E F G H I J K L M N O P Q R S T U V W X Y Z # 

To Withstand The Force Of Storms Tabs (ver.1)

La Dispute
Rating:
5/5 (1 vote)

Hard to play? Try these video lessons and learn fast.
                One of my favorite songs on the album, enjoy guys.




Intro:

E|-----------------------|
B|-----------------------|
G|-10101010101010101010--|
D|-7777777777777777777---|
A|-8888888888888888888---|
D|-7777777777777777777---|

E|-------------------------------|
B|-------------------------------|
G|-99999999999-1010101010101010--|
D|-xxxxxxxxxxx-xxxxxxxxxxxxxxxx--|
A|-77777777777-8888888888888888--|
D|-------------------------------|


Figure 1:

E|----------------------------|
B|----------------------------|
G|----------------------------|
D|----------------------------|
A|-0-5p0-8p70-5p0-7p0-8p0-----|
D|------------------------8---| x8



Figure 2:

E|----------------------------------------|
B|----------------------------------------|
G|---1010---10---1010---1010---77-99-7/9--|
D|-0-xxxx-0-xx-0-xxxx-0-xxxx-0-xx-xx-x/x--|
A|-0-8888-0-88-0-8888-0-8888-0-55-77-5/7--|
D|-0------0----0------0------0------------| x2

E|---------------------------------|
B|-1313s1111s1010s88s66s88s1010s88-|
G|---------------------------------|
D|---------------------------------|
A|---------------------------------|
D|---------------------------------|

E|-------------------------------------------|
B|-------------------------------------------|
G|----7777--77--7777----7777--1414-14141414--|
D|--0-xxxx--xx--xxxx--0-xxxx--xxxx-xxxxxxxx--|
A|--0-5555--55--5555--0-5555--1212-12121212--|
D|--0-----------------0----------------------| x4



Figure 3:

E|-----------------|
B|-----------------|
G|-----------------|
D|-0---00000000-0--|
A|-0---00000000-0--|
D|-0---00000000-0--| 

E|----------|
B|----------|
G|-10-1010--|
D|-88-7777--|
A|-88-8888--|
D|-88-7777--|


Figure 4:

E|----------------------------------------|
B|----------------------------------------|
G|---1010---10---1010---1010---77-99-7/9--|
D|-0-xxxx-0-xx-0-xxxx-0-xxxx-0-xx-xx-x/x--|
A|-0-8888-0-88-0-8888-0-8888-0-55-77-5/7--|
D|-0------0----0------0------0------------| x2

E|------------------------|
B|------------------------|
G|-----------------10-10--|
D|-00000----00000--88-77--|
A|-00000----00000--88-88--|
D|-00000----00000--88-77--| x2

E|---------------------------------|
B|-1313s1111s101s88s66s88s1010s88--|
G|---------------------------------|
D|---------------------------------|
A|---------------------------------|
D|---------------------------------| x4

E|----------------------------------|
B|-1313s1111s1010s88s66s88s1010s88--|
G|-1414s1212s1010s99s77s99s1010s99--|
D|----------------------------------|
A|----------------------------------|
D|----------------------------------| x4


Figure 5:

E|----------------------|
B|----------------------|
G|----------------------|
D|-0~---0-0--0~---0--8--|
A|-0~---0-0--0~---0--8--|
D|-0~---0-0--0~---0-/8--| x4



Figure 6:

E|------------------------|
B|------------------------|
G|-14s12s10s9s7s9s10s9----|
D|-0~~~~------------------|
A|-0~~~~------------------|
D|-0~~~~------------------| x4

E|---------|
B|---------|
G|---------|
D|-0~~~----|
A|-0~~~----|
D|-0~~~----| x4


Figure 7:

E|------------------------------------------------|
B|------------------------------------------------|
G|------------------------------------------------|
D|---3----3------10----10-----5----5-----5----5---|
A|--0-0--0-0----8--8--8--8---3-3--3-3---3-3--3-5--|
D|-0----0-----/8-----8------3----3-----2----2-----| x4

E|-555555555555555/6666666666666/8888888888888\333333333333333333---|
B|------------------------------------------------------------------|
G|------------------------------------------------------------------|
D|------------------------------------------------------------------|
A|------------------------------------------------------------------|
D|------------------------------------------------------------------| x2


Figure 8:

E|------------------------------------------------------------------------|
B|------------------------------------------------------------------------|
G|------------------------------------------------------------------------|
D|-3332223332223322--1010101010101010--5555555555555555--5555555555555555-|
A|-0000000000000000--888888888888888---3333333333333333--3333333333333333-|
D|-0000000000000000-/888888888888888---3333333333333333--2222222222222222-|

E|------------------------------------------------------------------------|
B|------------------------------------------------------------------------|
G|-9999999999/10101010101010/141414141414\12121212\1010/1212121212121212--|
D|-xxxxxxxxxx/xxxxxxxxxxxxxx/xxxxxxxxxxxx\xxxxxxxx\xxxx/xxxxxxxxxxxxxxxx--|
A|-7777777777/88888888888888/121212121212\10101010\8888/1010101010101010--|
D|------------------------------------------------------------------------|

E|------------------------------------------------------------------------|
B|------------------------------------------------------------------------|
G|-9999999999/10101010101010/141414141414\12121212\1010/12121212/17171717-|
D|-xxxxxxxxxx/xxxxxxxxxxxxxx/xxxxxxxxxxxx\xxxxxxxx\xxxx/xxxxxxxx/xxxxxxxx-|
A|-7777777777/88888888888888/121212121212\10101010\8888/10101010/15151515-|
D|------------------------------------------------------------------------|x2


Figure 9:

E|----------------------------------|
B|----------------------------------|
G|----------------------------------|
D|---3~------10~-----5~----5~-xx-x--|
A|--0-------8-------3-----3---xx-x--|
D|-0------/8-------3-----2----xx-x--|


End:

E|---------------------------------------------|
B|---------------------------------------------|
G|---------------------------------------------|
D|---3~-----10~-----5~----5----------2~~~~~----|
A|--0------8-------3-----3-3---3--3--0~~~~~----|
D|-0------8-------3-----2-----3--2---0~~~~~----|
            
Hard to play? Try these video lessons and learn fast. | Correct




comments powered by Disqus
↑ Back to top | Tablatures and chords are parodies/interpretations of the original songs. You may use it for private study, scholarship, research or language learning purposes only