>
 >
The Surgeon And The Scientist

The Surgeon And The Scientist Guitar Tabs

La Dispute - The Surgeon And The Scientist chords, tabs, tablatures, lyrics

Guitar lessons | Add/correct | Request | Top 50 tabs Artists:  A B C D E F G H I J K L M N O P Q R S T U V W X Y Z 0-9

The Surgeon And The Scientist Guitar Tabs – La Dispute

CD, Sheet music, Poster

Do you like The Surgeon And The Scientist? Share with your friends now
Tabs
This one was a more challenging song to tab out only by ear, so there may be some 
mistakes. Very interesting song. At 3:00, I really have no idea what is played besides a lot 
of noise and feedback. So playing the chord that I provided will sound fine. Have fun, guys!



Intro:
E|----------------|
B|---12~~~--------|
G|---15~~~--------|
D|---15~~~--------|
A|----------------|
D|----------------| x7


Figure 1:

E|-----------------------------|
B|-----------------------------|
G|-----------------------------|
D|-7----7----7-------------0h2-|
A|-7----7----7---------0h3-----|
D|-7\---7\---7\----------------| x2

E|-----------------------------------|
B|-----------------------------------|
G|-----------------------------------|
D|-7-xxxx-7-xxxx-7-xxxxxxx-------0h2-|
A|-7-xxxx-7-xxxx-7-xxxxxxx---0h3-----|
D|-7-xxxx-7-xxxx-7-xxxxxxx-----------| x2

E|----------------|
B|----------------|
G|----------------|
D|-7-10--7-12-----|
A|-7-10--7-12-----|
D|-7-10--7-12-----| x8



Figure 2:
E|------------------|
B|------------------|
G|------------------|
D|-7----------7-7---|
A|-7----------7-7---|
D|-7----------7-7---|

E|----------10---------------|
B|-10-11-12-12-12-11-12-11---|
G|---------------------------|
D|---------------------------|
A|---------------------------|
D|---------------------------| x4



Figure 3:

E|------------------------------|
B|------------------------------|
G|-------------------------14b--|
D|-7--10-9--12-10--14-12----x---|
A|-7--10-9--12-10--14-12--/12---|
D|-7--10-9--12-10--14-12--------| x4

E|--------------------|
B|--------------------|
G|--------------------|
D|-7-7-7--------------|
A|-7-7-7--*Pickslide*-|
D|-7-7-7--------------|

E|----------------|
B|----------------|
G|----------------|
D|-7-10--7-12-----|
A|-7-10--7-12-----|
D|-7-10--7-12-----| x16

E|------------------|
B|------------------|
G|------------------|
D|-7-------------6~-|
A|-7-------------7~-|
D|-7-------------6~-|


Figure 4:

E|--------------------------|
B|--------------------------|
G|--------------------------|
D|----------------9-9---9-9-|
A|-0-3-3-0-3-3--0-7-7-0-7-7-|
D|--------------------------| x8

E|---------|
B|---------|
G|---------|
D|--3~-2~--|
A|--3~-2~--|
D|--3~-2~--|


Figure 5:

E|--------------------------|
B|--------------------------|
G|---777----555----777--14--|
D|-7-xxx--7-xxx--7-xxx---x--|
A|-7-555--7-333--7-555-/12--|
D|-7------7------7----------| x4


Figure 6:

E|--------------|
B|--------------|
G|--------------|
D|-777-333-000--|
A|-777-333-000--|
D|-777-333-000--| x4

E|---------------------------------------------|
B|---------------------------------------------|
G|----10---10----5----5-----9----9-----2----2--|
D|-00-x-00-x--00-x-00-x--00-x-00-x--00-x-00-x--|
A|-00-8-00-8--00-3-00-3--00-7-00-7--00-0-00-0--|
D|-00---00----00---00----00---00----00---00----| x4

E|-----------------------------------------|
B|-----------------------------------------|
G|-10101010--55555555--9999999-222222222---|
D|--xxxxxxx--xxxxxxxx--xxxxxxx-xxxxxxxxx---|
A|--8888888--33333333--7777777-000000000---|
D|-----------------------------------------| x2



Figure 7:

E|--------------|
B|--------------|
G|--------------|
D|-7~~-3~~-0~~--|
A|-7~~-3~~-0~~--|
D|-7~~-3~~-0~~--| x2


Figure 8:

E|------------|
B|---12-------|
G|---15-------|
D|---15-------|
A|------------| Gets really confusing here...
D|------------| So just strum this multiple times until Figure 9


Figure 9:

E|---------------------------------------------------|
B|---------------------------------------------------|
G|---------------------------------------------------|
D|-2p0---2p0---2p0---2p0---2p0---2p0---3p0---5p0-----|
A|----3p0---3p0---3p0---3p0---3p0---3p0---3p0---3p0--|
D|---------------------------------------------------| x3

E|------------------|
B|------------------|
G|------------------|
D|-0~--2~--3~--5~---|
A|-0~--2~--3~--5~---|
D|-0~--2~--3~--5~---| x4



Figure 10:

E|---------|
B|---------|
G|--7------|
D|--x------|
A|--5------|
D|---------| Strum for 4 measures

E|---------------------------------------------------|
B|---------------------------------------------------|
G|---------------------------------------------------|
D|-2p0---2p0---2p0---2p0---2p0---2p0---3p0---5p0-----|
A|----3p0---3p0---3p0---3p0---3p0---3p0---3p0---3p0--|
D|---------------------------------------------------|


End/Intro:

E|----------------|
B|---12~~~--------|
G|---15~~~--------|
D|---15~~~--------|
A|----------------|
D|----------------| x9





Comments


Popular La Dispute tabs & chords
King Park Bass Tabs
Said The King To The River Bass Tabs
Why It Scares Me Bass Tabs
You And I In Unison Bass Tabs
Four Tabs
He Is Here He Is Not Afraid 1 Tabs
King Park 1 Tabs
Such Small Hands Tabs
Then Again, Maybe You Were Right Tabs
Twelve Intro Tabs


Song lyrics



↑ Back to top | Tablatures and chords are parodies/interpretations of the original songs. You may use it for private study, scholarship, research or language learning purposes only
© 2014 AZChords.com Contact us | Privacy policy | DMCA | Add/correct tabs | Request tabs | Top 50 tabs