» » »

Then Again, Maybe You Were Right Tabs (ver.1)

Artists:  A B C D E F G H I J K L M N O P Q R S T U V W X Y Z # 

Then Again, Maybe You Were Right Tabs (ver.1)

La Dispute
Rating:
0/5 (0 votes)

Hard to play? Try these video lessons and learn fast.
                Really good intense song. This is one of their heavier 'Somewhere at the Bottom' songs.  
Enjoy guys!



Intro:

E|-----|
B|-----|
G|-----|
D|-2~--|
A|-2~--|
D|-2~--| x4


Figure 1:

E|-----------------------------------------------------------|
B|-----------------------------------------------------------|
G|-----------------------------------------------------------|
D|-2-xxxxx-2222-753-2-xxxxx-2222-33--2-xxxxx-2222-753-5-2-3--|
A|-2-xxxxx-2222-753-2-xxxxx-2222-33--2-xxxxx-2222-753-5-2-3--|
D|-2-xxxxx-2222-753-2-xxxxx-2222-33--2-xxxxx-2222-753-5-2-3--|

E|----------------------------------------|
B|----------------------------------------|
G|----------------------------------------|
D|-2-xxxxx-2222-33--2-xxxxx-2222-753-5----|
A|-2-xxxxx-2222-33--2-xxxxx-2222-753-5----|
D|-2-xxxxx-2222-33--2-xxxxx-2222-753-5----|

E|-----------------------------------------|
B|-----------------------------------------|
G|-----------------------------------------|
D|-2-xxxxx-2222-33--2-xxxxx-2222-753-523---|
A|-2-xxxxx-2222-33--2-xxxxx-2222-753-523---|
D|-2-xxxxx-2222-33--2-xxxxx-2222-753-523---|



Figure 2:

E|-------------------------------------|
B|-------------------------------------|
G|-------------------------------------|
D|-2-0-2--------------2-0-2--5-0-7-35--|
A|-2-0-2--*Pickslide*-2-0-2--5-0-7-35--|
D|-2-0-2--------------2-0-2--5-0-7-35--| x4


Figure 3:

E|-----------------------------------|
B|---------------------4~~~~~~~~~~~--|
G|---------------------7~~~~~~~~~~~--|
D|-0~~~~~~~~~------------------------|
A|-0~~~~~~~~~------------------------|
D|-0~~~~~~~~~------------------------|



Figure 4:

E|-----------------------------------|
B|-----------------------------------|
G|-------------------------5h7p5-----|
D|-0-3h5-0-3h6-0-3h5-3/5p0------6p5--|
A|-----------------------------------|
D|-----------------------------------| x3

E|-----------------------------------|
B|-----------------------------------|
G|-----------------------------------|
D|-0-3h5-0-5h6-0-6h8-0-8h10-0-10h12--|
A|-----------------------------------|
D|-----------------------------------|



Figure 5:

E|----------------------------------|
B|----------------------------------|
G|-7777777-7777777-5555555-8888888--|
D|-xxxxxxx-xxxxxxx-xxxxxxx-xxxxxxx--|
A|-5555555-5555555-3333333/6666666--|
D|----------------------------------| x2

E|-------|
B|-------|
G|--7b^--|
D|-------|
A|-------|
D|-------| x10


Figure 6:

E|------------------------|
B|------------------------|
G|--7p0-5p0---------------|
D|---------5p0-5p00-6p5---|
A|------------------------|
D|------------------------| x2


Ending:

E|----------|
B|----------|
G|--777-----|
D|--777-5---|
A|--555-5---|
D|------5---| x2
            
Hard to play? Try these video lessons and learn fast. | Correct




comments powered by Disqus
↑ Back to top | Tablatures and chords are parodies/interpretations of the original songs. You may use it for private study, scholarship, research or language learning purposes only