» » »

La Dispute, The Castle Builders Tabs (ver.2)

Artists:  A B C D E F G H I J K L M N O P Q R S T U V W X Y Z # 

The Castle Builders Tabs (ver.2)

La Dispute Tabs
 Rating:
3.6/5 (7 votes)
The Castle Builders lessons Tabs too difficult? Try these video lessons and learn fast
1
                The Castle Builders by La Dispute
Tuning: Drop D
D-A-D-G-B-e


e|-----------------------------------------------------|
B|-----------------------------------------------------|
G|---7-10-7------5-------------------------7-6---------|
D|----------------------7-----5-8-5--------------------| Intro x4
A|-----------------------------------------------------|
D|-8---------7-7----3-----3/5--------5-7-7-----7-7-----|


e|--------------------------------|
B|--------------------------------|
G|--10--9--5--7--6----------------|
D|--------------------------------|
A|--8---7--3--5--4----------------|
D|--------------------------------|


e|----------------------------------------------------|
B|-------9p0-------9p0---------9p0-------9p0----------|
G|-------9p0-------9p0---------9p0-------9p0----------|
D|-------9p0-------9p0---------9p0-------9p0----------|
A|--7-7------0-7-7-----10--7-7-----0-7-7-----5--------|
D|--7-7------0-7-7-----10--7-7-----0-7-7-----5--------|


e|--------------------------------------------|
B|--------------------------------------------|
G|---------------------------------------9-7--|
D|-----.-.------------------------------------|
A|---7-7-7-5-7---7--5-7--2--0-2--2--0-2--7-5--|
D|---7-7-7-5-7---7--5-7--2--0-2--2--0-2-------|


e|-------------------------------------------------------------------------|
B|-------------------------------------------------------------------------|
G|-----5-------5-5-5------5-------5-5-5-----------------------9--7----5----|
D|-7-7--7-5-7-7-7-7-7-7-7--7-5-7-7-7-7-7------5-------5-5-5-------x2-------|
A|----------------------------------------7-7--7-5-7-7-7-7-7--7--5----3----|
D|-------------------------------------------------------------------------|

e|----------------------------------------------------------------------------------------|
B|----------------------------------------------------------------------------------------|
G|----------------------------------------------------------------------------------------|
D|-10-7-5-7--10-7-5-7--10-7-5-7--10-10-12-12-10-7-5-7--10-7-5-7--10-7-5-7--10-10-5-5------|
A|----------------------------------------------------------------------------------------|
D|----------------------------------------------------------------------------------------|


After this part repeat the intro and the second verse
            
Submit corrections

comments powered by Disqus
↑ Back to top | La Dispute Tabs for The Castle Builders. Lyrics for acoustic guitar and electric guitar. 1 Tablatures and chords are parodies/interpretations of the original songs. You may use it for private study, scholarship, research or language learning purposes only