>
 >
Shall Never Lose Its Power

Shall Never Lose Its Power Guitar Tabs

La Dispute - Shall Never Lose Its Power chords, tabs, tablatures, lyrics

Guitar lessons | Add/correct | Request | Top 50 tabs Artists:  A B C D E F G H I J K L M N O P Q R S T U V W X Y Z 0-9

Shall Never Lose Its Power Guitar Tabs – La Dispute

CD, Sheet music, Poster

Do you like Shall Never Lose Its Power? Share with your friends now
Tabs
-----------------------------------------------------------------------------
-----------------------------------------------------------------------------



Tuning: Drop D


Intro: (With delay)

E|--------------------------------------------|
B|--------------------------------------------|
G|--------------------------------------------| 
D|----15---15---15---15-----14-----14----14---|
A|---0--0-0--0-0--0-0--0-0----0-0-0--0-0------|
D|--0----0----0----0----0-0----0-0----0-0-----| x2

E|---------------------------------|
B|---------------------------------|
G|---------------------------------| 
D|-----14~-12~-------19~-17~--19~--|
A|--12~----------17~---------------|
D|---------------------------------| x2

E|-------------------------|
B|-------------------------|
G|-------------------------| 
D|----15---15---15---15----|
A|---0--0-0--0-0--0-0--0---|
D|--0----0----0----0-------|


Figure 1:

E|--------------------------------------------|
B|--------------------------------------------|
G|--------------------------------------------| 
D|----15---15---15---15-----14-----14----14---|
A|---0--0-0--0-0--0-0--0-0----0-0-0--0-0------|
D|--0----0----0----0----0-0----0-0----0-0-----| x2

E|-------------------------|
B|-------------------------|
G|-------------------------| 
D|----15---15---15---15----|
A|---0--0-0--0-0--0-0--0---|
D|--0----0----0----0-------|

E|---------------------------------------------------|
B|---------------------------------------------------|
G|---------------------------------------------------| 
D|---------------------------------------------------|
A|--12~/15~\12\~\10~/12~\8~/10~\7~/8~/12~/15~/17~~---|
D|---------------------------------------------------| x2


Figure 2:

E|-------------------------------------|
B|-------------------55555555----------|
G|--10101010-10-1010-55555555-99-999---| 
D|--xxxxxxxx-xx-xxx--xxxxxxxx-77-777---|
A|--88888888-88-888--33333333-77-777---|
D|--00000000-00-000-----------77-777---|

E|--------------------------------------|
B|-------------------55555555-----------|
G|--10101010-10-1010-55555555-----------| 
D|--xxxxxxxx-xx-xxx--xxxxxxxx--2-2-2-2--|
A|--88888888-88-888--33333333--x-x-x-x--|
D|--00000000-00-000------------2-2-2-2--|

E|-------------------------0~--|
B|--6666666666---55555555--1~--|
G|--7777777777---55555555--2~--| 
D|--xxxxxxxxxx---xxxxxxxx--2~--|
A|--8888888888---33333333--0~--|
D|--0000000000-----------------|

E|-------------------------0-0---|
B|--6666666666---55555555--1-1---|
G|--7777777777---55555555--2-2---| 
D|--xxxxxxxxxx---xxxxxxxx--2-2---|
A|--8888888888---33333333--0-0---|
D|--0000000000-------------------|


Figure 3:

E|-------------------------------------|
B|--------------------6--6--6--6-------|
G|--------------------9--9--9--9-------| 
D|--------------------------------8----|
A|--5555555555555555--------------8----|
D|--8888888877778888--------------8-\--|

E|------0~------------------------------------|
B|------0~------------------------------------|
G|------2~------------------------------------| 
D|--0~--2~--6~---9~--3~--5~--7~---///9-7------|
A|--0~--0~--6~---9~--3~--5~--7~---------8-7---|
D|--0~------6~--/9~--3~--5~--7~---------------|

E|------0~------------------------|
B|------0~------------------------|
G|------2~------------------------| 
D|--0~--2~--6~---9~--3~--5~--7~---|
A|--0~--0~--6~---9~--3~--5~--7~---|
D|--0~------6~--/9~--3~--5~--7~---|



Figure 4:


E|--------------------------------------|
B|--------------------------------------|
G|----16----16----16----16----16--------| 
D|------14----14----14----14----14------|
A|--15----15----15----15----15----15----|
D|--------------------------------------| x12

E|----------|
B|----------|
G|----------| 
D|--14~~~---|
A|--15~~~---|
D|----------|


Figure 5:

E|----------------------------------------------------|
B|----------------------------------------------------|
G|--14141414-14141414-xx14-14--12121212-12121212-12---| 
D|---x-x-x-x--x-x-x-x-xx-x--x---x-x-x-x--x-x-x-x--x---|
A|--12121212-12121212-xx12-12--10101010-10101010-10---|
D|----------------------------------------------------|

E|----------------------------------------------------|
B|----------------------------------------------------|
G|--12121212-12121212-xx12-12--10101010-10101010-10---| 
D|---x-x-x-x--x-x-x-x-xx-x--x---x-x-x-x--x-x-x-x--x---|
A|--10101010-10101010-xx10-10---8-8-8-8--8-8-8-8--8---|
D|----------------------------------------------------|

E|----------------------------------------------------|
B|----------------------------------------------------|
G|--14141414-14141414-xx14-14--12121212-12121212-12---| 
D|---x-x-x-x--x-x-x-x-xx-x--x---x-x-x-x--x-x-x-x--x---|
A|--12121212-12121212-xx12-12--10101010-10101010-10---|
D|----------------------------------------------------|

E|------------------------------------------------------|
B|------------------------------------------------------|
G|--12121212-12121212-xx12-12---14-----16-----17--------| 
D|---x-x-x-x--x-x-x-x-xx-x--x----x------x------x--------|
A|--10101010-10101010-xx10-10---12(x6)-14(x6)-15(x12)---|
D|------------------------------------------------------|


Figure 6:

E|---------12~~---------7~~--------12~~--\7-8-7------------------|
B|--8h10p8-------8h10p8-----8h10p8--------------3/5-/8--/10-p8---|
G|---------------------------------------------------------------| 
D|---------------------------------------------------------------|
A|---------------------------------------------------------------|
D|---------------------------------------------------------------|

E|---------12~~--------7~~-------12~~-171717-15--------------------------|
B|--8h10p8------8h10p8-----8h10p8--------------17--13(x8)12(x8)10(x8)-8\-|
G|-----------------------------------------------------------------------| 
D|-----------------------------------------------------------------------|
A|-----------------------------------------------------------------------|
D|-----------------------------------------------------------------------|


Figure 7:

E|---------------------------------------------|
B|-10(x8)-12(x8)-13(x8)-12(x8)-10(x4)-12(x4)---|
G|---------------------------------------------| 
D|---------------------------------------------|
A|---------------------------------------------|
D|---------------------------------------------|

E|----------------------------------------------------|
B|--8(x8)-10(x8)-12(x8)-10(x8)-13p12p1010-13p12p1010--|
G|----------------------------------------------------| 
D|----------------------------------------------------|
A|----------------------------------------------------|
D|----------------------------------------------------|

E|--------------------------------------------------------------|
B|--8(x8)-12(x8)-13(x8)-12(x8)-10(x4)12(x4)-13(x8)12(x8)10(x8)--|
G|--------------------------------------------------------------| 
D|--------------------------------------------------------------|
A|--------------------------------------------------------------|
D|--------------------------------------------------------------|

E|----------------------------------------------------|
B|-13p12p1010-13p12p1010-13p12p1010-13p12p1010--------|
G|----------------------------------------------------| 
D|----------------------------------------------------|
A|----------------------------------------------------|
D|----------------------------------------------------|


Figure 8:

E|--20(x8)19(x8)-------20(x8)19(x4)-------------15(x8)17(x8)19(x16)--|
B|--------------17(x8)-------------17(x4)-15(x8)---------------------|
G|-------------------------------------------------------------------| 
D|-------------------------------------------------------------------|
A|-------------------------------------------------------------------|
D|-------------------------------------------------------------------|

E|-15(x12)19p-15(x8)19p-15(x8)19p-15(x8)19p-15(x4)--|
B|--------------------------------------------------|
G|--------------------------------------------------| 
D|--------------------------------------------------|
A|--------------------------------------------------|
D|--------------------------------------------------|

E|-20(x8)19(x8)17(x4)-20p19p1717-20p19p1717-20p19p1717-20p19p1717--|
B|-----------------------------------------------------------------|
G|-----------------------------------------------------------------| 
D|-----------------------------------------------------------------|
A|-----------------------------------------------------------------|
D|-----------------------------------------------------------------|


Outro:

E|--0000---|
B|--1111---|
G|--2222---| 
D|--2222---|
A|--0000---|
D|---------| x11





Comments


Popular La Dispute tabs & chords
Edward Benz 27 Times Bass Tabs
Such Small Hands 1 Bass Tabs
A Poem Tabs
Andria 1 Tabs
Fairmount Tabs
He Is Here, He Is Not Afraid Tabs
Only Everything Below Tabs
Said The King To The River Tabs
St Paul Missionary Baptist Church Blues Tabs
The Surgeon And The Scientist Tabs


Song lyrics



↑ Back to top | Tablatures and chords are parodies/interpretations of the original songs. You may use it for private study, scholarship, research or language learning purposes only
© 2014 AZChords.com Contact us | Privacy policy | DMCA | Add/correct tabs | Request tabs | Top 50 tabs