» » »

See You In Vancouver Tabs (ver.1)

Artists:  A B C D E F G H I J K L M N O P Q R S T U V W X Y Z # 

See You In Vancouver Tabs (ver.1)

La Dispute
Rating:
4/5 (1 vote)

Hard to play? Try these video lessons and learn fast.
                THE hardest La Dispute song to tab, by far (to my knowledge, at least)

There's alot of ... "noise" in this song. And that "noise" is a royal pain to tab. So 
this may not be 100% correct.

Please comment and rate the other tabs of songs off of 'Vancouver' Including this one.

Please correct me if I have anything wrong. However, it sounds fine when I play it to 
the song. It fits.

So enjoy playing this, guys!



Figure 1:

E|-------------------------------------------------------------------|
B|--------6b~---------5b-555b~-------------6b~-----------------------|
G|----7p5---------7p5------------------7p5----------7p5--------------|
D|------------------------------------------------------7b-777b~-----|
A|-------------------------------------------------------------------|
D|-0~----------5~-------------------0~-----------5~------------------| x8



Figure 2:

E|---------------------------------------------------------------------|
B|---------------------------------------------------------------------|
G|-7777-7777-7777-10-777-10-777-10-777--121212121077-121212121077-6-7*-|
D|-xxxx-xxxx-xxxx--x-xxx--x-xxx--x-xxx--xxxxxxxxxxxx-xxxxxxxxxxxx-x-x*-|
A|-5555-5555-5555-/8\555-/8\555-/8\555--101010108855-101010108855-4/5*-|
D|---------------------------------------------------------------------| x2

E|--------|
B|--------|
G|--7~~---|
D|--x~~---|
A|--5~~---|
D|--------|

E|-------------------|
B|-333333333-33-333--|
G|-111111111-11-111--|
D|-------------------|
A|-------------------|
D|-------------------|




Figure 3:

*While sliding the G Power Chord fast, Strum 16th notes with your other hand*

E|----------------------------------------|
B|----------------------------------------|
G|-77------7777------77------7777------7--|
D|-xx-5-5--xxxx-5-5--xx-5-5--xxxx-5-5--x--|
A|-55-5-5--5555-5-5--55-5-5--5555-5-5--5--|
D|----5\5\------5\5\----5\5\------5\5\----|

E|----------------------------------------|
B|-----3-3---------3-3-----3-3------------|
G|-----1-1---------1-1-----1-1------------|
D|-5-5-----5-5-5-5-----5-5-----5--5--5----|
A|-5-5-----5-5-5-5-----5-5-----5--5--5----|
D|-5\5\----5\5\5\5\----5\5\----5\\5\\5\---| x2





Figure 4:

E|-------------------|
B|-3333333333333333--|
G|-1111111111111111--|
D|-------------------|
A|-------------------|
D|-------------------|

E|-----------------------------------|
B|--14141414-1414141414141414141414~-|
G|--12121212-1212121212121212121214~-|
D|-----------------------------------|
A|-----------------------------------|
D|-----------------------------------|

E|----------------|
B|-5-5~~--6-6~~---|
G|-7-7~~--9-9~~---|
D|----------------|
A|----------------|
D|----------------| x4

E|------------------|
B|------------------|
G|------------------|
D|-0000-0000-0000---|
A|-0000-0000-0000---|
D|-0000-0000-0000---|




Figure 5:

E|-------------------------------------------------------------------|
B|-------------------------------------------------------------------|
G|-------------------------------------------------------------------|
D|-0000-0000-0000-5555-5555-5555-8888-8888-8-10-8-0000-0000----------|
A|-0000-0000-0000-5555-5555-5555-8888-8888-8-10-8-0000-0000-55-5h7p5-|
D|-0000-0000-0000-5555-5555-5555-8888-8888-8/10/8-0000-0000----------| x2

E|---------------------------------------------------------------------|
B|---------------------------------------------------------------------|
G|-7777-7777-7777-10-777-10-777-7777-121212121077-121212121077-666666--|
D|-xxxx-xxxx-xxxx--x-xxx--x-xxx-xxxx-xxxxxxxxxxxx-xxxxxxxxxxxx-xxxxxx--|
A|-5555-5555-5555-/8\555-/8\555-5555-101010108855-101010108855-444444--|
D|---------------------------------------------------------------------|

E|--------------|
B|--------------|
G|-7/-99999999--|
D|-x/-xxxxxxxx--|
A|-5/-77777777--|
D|--------------|



Figure 6:

E|----------------------------------|
B|----------------1111111111111111--|
G|----------------1414141414141414--|
D|-0000-0000-0000-------------------|
A|-0000-0000-0000-------------------|
D|-0000-0000-0000-------------------| x4

E|-----------------------------------------------------|
B|--111111111111111111111111111111111111111111111111---|
G|--141414141414141414141414141414141414141414141414---|
D|-----------------------------------------------------|
A|-----------------------------------------------------|
D|-----------------------------------------------------|




Figure 7:

E|------------------|
B|-7777777777777777-|
G|-5555555555555555-|
D|------------------|
A|------------------|
D|------------------| x4

E|-----------|
B|-----------|
G|-----------|
D|-0-0-000---|
A|-0-0-000---|
D|-0-0-000---|

E|--------------------------------------|
B|---------------------------9-9-9-9----|
G|--------------------------12121212----|
D|-0000-0000-0000-0000-0000-------------|
A|-0000-0000-0000-0000-0000-------------|
D|-0000-0000-0000-0000-0000-------------|

E|--------------------------------------|
B|---------------------------9-9-121212-|
G|--------------------------1212/151515-|
D|-0000-0000-0000-0000-0000-------------|
A|-0000-0000-0000-0000-0000-------------|
D|-0000-0000-0000-0000-0000-------------|

E|------------------|
B|-7777777777777777-|
G|-5555555555555555-|
D|------------------|
A|------------------|
D|------------------| x4


End with:

E|-----------------------|
B|-----------------------|
G|-----------------------|
D|-000-0--000-0--00~~~~--|
A|-000-0--000-0--00~~~~--|
D|-000-0--000-0--00~~~~--|
            
Hard to play? Try these video lessons and learn fast. | Correct




comments powered by Disqus
↑ Back to top | Tablatures and chords are parodies/interpretations of the original songs. You may use it for private study, scholarship, research or language learning purposes only