>
 >
Only Everything Below

Only Everything Below Guitar Tabs

La Dispute - Only Everything Below chords, tabs, tablatures, lyrics

Guitar lessons | Add/correct | Request | Top 50 tabs Artists:  A B C D E F G H I J K L M N O P Q R S T U V W X Y Z 0-9

Only Everything Below Guitar Tabs – La Dispute

CD, Sheet music, Poster

Do you like Only Everything Below? Share with your friends now
Tabs
------------------------------------------------------------------------------------------ \
------------------------------------------------------------------------------------------ \



Tuning: Drop D


This was was alittle difficult. But I really had fun playing this one.

Enjoy guys!


Intro:

E|-----|
B|-----|
G|--8--|
D|--x--|
A|--6--|
D|-----| x8

E|-----|
B|-----|
G|--7--|
D|--x--|
A|--6--|
D|-----| x8


Figure 1:

E|------------------------------------------------|
B|--6-5--------------------6-5--------------------|
G|------7-6----------6h7-------7-6-----------12---|
D|----------8-8-8---7--------------8x---00----x---|
A|-----------------8--------------------00--/10---|
D|--------------------------------------00--------|

E|-----------------------------------0x---|
B|--6-5--------------------6-5-------0x---|
G|------7-6----------6h7-------7-6---0x---|
D|----------8-8-8---7-------------8x-0x---|
A|-----------------8----------------------|
D|----------------------------------------|

E|------------------------------------------------|
B|--6-5--------------------6-5--------------------|
G|------7-6----------6h7-------7-6-----------12---|
D|----------8-8-8---7--------------8x---00----x---|
A|-----------------8--------------------00--/10---|
D|--------------------------------------00--------|

E|-------------------------------------------------------|
B|--6-5--------------------6-5-------------------8p555---|
G|------7-6----------6h7-------7-6---------7h1010--------|
D|----------8-8-8---7--------------8x-888----------------|
A|-----------------8-------------------------------------|
D|-------------------------------------------------------|


Figure 2:

E|-----------9--------|
B|--10(x32)-10(x32)---|
G|--------------------|
D|--------------------|
A|--------------------|
D|--------------------|

E|---9------10------12------14---------|
B|--10(x16)-10(x16)-10(x16)-10(x16)----|
G|-------------------------------------|
D|-------------------------------------|
A|-------------------------------------|
D|-------------------------------------| x2

E|------------------------------------|
B|------------------------------------|
G|--9-----11------13------14----------|
D|--x------x-------x-------x----------|
A|--7(x16)-9(x16)-11(x16)-12(x16)-----|
D|------------------------------------| x2


Figure 3:


E|------------------------------ \
B|------------------------------ \
G|------888---------------|----- \
D|--000-xxx-0-xxx-0-------| ---- \
A|--000-666-0-xxx-0-------|  --- \
D|--000-----0-xxx-0-3b^---|   -- \
                                x2
E|------------------------- \   -- /
B|------------------------- \  --- /
G|------777---------------- \ ---- /
D|--000-xxx-0-xxx-0-------- \----- /
A|--000-666-0-xxx-0--------------- / \
D|--000-----0-xxx-0-3b^----------- / \

E|------------|
B|------------|
G|-7-7-7------|
D|-x-x-x-0----|
A|-6-6-6-0----|
D|-------0----|


Figure 4:

E|------------------------------------------------------------------|
B|------------------------------------------------------------------|
G|------------------------------------------------------------------|
D|-xxxx-7-8--10-----5p3p00---5-3------xxxx-7-8--10---5p3p00--5-3----|
A|-xxxx----8---10----------3-----55---xxxx----8---10--------3---5---|
D|------------------------------------------------------------------|

E|------------------------------------------------------------------|
B|------------------------------------------------------------------|
G|------------------------------------------------------------------|
D|-xxxx-7-8--10-----5p3p00---5-3------xxxx-7-8--10---5p3p00-8~--3~--|
A|-xxxx----8---10----------3-----55---xxxx----8---10--------8~--3~--|
D|----------------------------------------------------------8~-/3~--|



Figure 5:

E|--------------------------------------|
B|--------------------------------------|
G|--------------------------------------|
D|-0--8p7h8-3-0-5~--0--8p7h8-3-0-5--8~--|
A|-0--------3-0-5~--0--------3-0-5--8~--|
D|-0--------3-0-5~--0--------3-0-5-/8~--|

E|-------------------------------------------|
B|-------------------------------------------|
G|-------------------------------------------|
D|-0--8p7h8-3-0-5~--0--8p7h8-3-0-5--8~--3~---|
A|-0--------3-0-5~--0--------3-0-5--8~--3~---|
D|-0--------3-0-5~--0--------3-0-5-/8~-\3~---|

E|--------------------------------------|
B|--------------------------------------|
G|--------------------------------------|
D|-0--8p7h8-3-0-5~--0--8p7h8-3-0-5--8~--|
A|-0--------3-0-5~--0--------3-0-5--8~--|
D|-0--------3-0-5~--0--------3-0-5-/8~--|

E|-----------------------------------|
B|-----------------------------------|
G|-----------------------------------|
D|-0--8p7h8-3-0-5~--0--8p7h8-0-0-0---|
A|-0--------3-0-5~--0--------0-0-0---|
D|-0--------3-0-5~--0--------0-0-0---|


(Bass Riff)


Figure 6:

E|-----------------------------------------------|
B|-----------------------------------------------|
G|-14-14-14-14-12-12-12-12-10-10-10-10-9-9-9-9---|
D|-----------------------------------------------|
A|-----------------------------------------------|
D|-----------------------------------------------| x2

E|--------------------------|
B|--------------------------|
G|---9-9-9-9--10-10-10-10---|
D|--7-7-7-7-/8--8--8--8-----|
A|--------------------------|
D|--------------------------|


Figure 7:

E|---------------------------------------|
B|---------------------------------------|
G|-----14~--15p14------17~---15-15p14----|
D|-12~----------15-14---------15---------|
A|---------------------------------------|
D|---------------------------------------| x4

E|----------------------------------------------------|
B|----------------------------------------------------|
G|--777777777/99999999/10101010101010/121212121212----|
D|----------------------------------------------------|
A|----------------------------------------------------|
D|----------------------------------------------------|

E|----------------------------------------------------------|
B|----------------------------------------------------------|
G|--777777777/99999999/10101010101010/12p10-----------------|
D|-----------------------------------------12p10--10h12p10--|
A|----------------------------------------------12----------|
D|----------------------------------------------------------|

E|------------------------|
B|------------------------|
G|------------------------|
D|--12p10------------10---|
A|-------12p10--10h12-----|
D|------------12----------| x8

E|--------------------------|
B|--------------------------|
G|---9-9-9-9--10-10-10-10---|
D|--7-7-7-7-/8--8--8--8-----|
A|--------------------------|
D|--------------------------|


Figure 8:

E|-----------------------------------------|
B|-----10-----11------13---111111-111111---|
G|------7------9------10---141414-141414---|
D|-0-xx---0-xx---0-xx----------------------|
A|-0-xx---0-xx---0-xx----------------------|
D|-0-xx---0-xx---0-xx----------------------| x2

E|--------------------------------------------|
B|-----10-10--11-----131313---181818-181818---|
G|------7--7---9-----101010---212121-212121---|
D|-0-xx-----------0---------------------------|
A|-0-xx-----------0---------------------------|
D|-0-xx-----------0---------------------------| x2

E|-------------------------------------------------|
B|-----10~~~-------11~~~------13~----------11~~~---|
G|------7~~~--------9~~~------10~-----------9~~~---|
D|-0-xx--------0-xx------0-xx-----0x---0-xx--------|
A|-0-xx--------0-xx------0-xx-----0x---0-xx--------|
D|-0-xx--------0-xx------0-xx-----0x---0-xx--------|



Outro:

E|-----------------------------------------------|
B|-----------------------------------------------|
G|-14-14-14-14-12-12-12-12-10-10-10-10-9-9-9-9---|
D|-----------------------------------------------|
A|-----------------------------------------------|
D|-----------------------------------------------| x4


*******************************************************





Comments


Popular La Dispute tabs & chords
King Park Bass Tabs
Last Blues Chords
A Word Of Welcome And Of Warning Tabs
Andria Tabs
King Park Tabs
Safer In The Forest Love Song For Poor Michigan 1 Tabs
Such Small Hands Intro Tabs
The Castle Builders Intro Tabs
To Withstand The Force Of Storms Tabs
Such Small Hands Ukulele


Song lyrics



↑ Back to top | Tablatures and chords are parodies/interpretations of the original songs. You may use it for private study, scholarship, research or language learning purposes only
© 2014 AZChords.com Contact us | Privacy policy | DMCA | Add/correct tabs | Request tabs | Top 50 tabs