>
 >
Four

Four Guitar Tabs

La Dispute - Four chords, tabs, tablatures, lyrics

Guitar lessons | Add/correct | Request | Top 50 tabs Artists:  A B C D E F G H I J K L M N O P Q R S T U V W X Y Z 0-9

Four Guitar Tabs – La Dispute

CD, Sheet music, Poster

Do you like Four? Share with your friends now
Tabs
-------------------------------------------------------------------------------
-------------------------------------------------------------------------------


Tuning: Standard (E-A-D-G-B-e)

Intro:

E |-------------------------------|
B |--------------0----------------|
G |----------0-----0---0----------|
D |------4-----4-----4-----4------| X 2
A |----2---2-------------2--------|
E |--0----------------------------|

e|-------------------------------|
B|----------0---0----------------|
G|------0-----0---0---0----0-----|
D|----4---4---------4---4--------| 
A|--3----------------------------|
E|-------------------------------|

e-------------------------------|
B--------------0----------------|
G------0---0-----0---0----------|
D----4---4---4-----4-----4------|
A--5-------------------5--------|
E-------------------------------|


Second Guitar: (The single strums. pretty sure it's this order, 
but it doesn't sound bad either way)

e--0-------0-------0-------0----|
B--0-------0-------0-------0----|
G--0-------0-------0-------0----|
D--4-------4-------4-------4----|
A--2-------2-------3-------5----|
E--0-------0-------0-------0----|


Third Guitar:

e--------------------------------------|
B--------------------------------------|
G|-9---9--7---7--------9---9--7---7-----|
D|--------------9-------------------7---|
A|--------------------------------------|
E|--------------------------------------|

e|--------------------------------------|
B|--------------------------------------|
G|-9---9--7---7-------9---9--7---7/13---|
D|--------------9-----------------------|
A|--------------------------------------|
E|--------------------------------------|


Strumming: I figured out the strumming part but 
I'll also keep the alternative way up.

e|------------------------|
B|------------------------|
G|--0----0(12)--7-----5---|
D|--5-----9-----4-----2---|
A|--3----10-----5-----3---|
E|--0-----0-----0-----0---|



Here's what I originally had it posted as
e|--0-----0-----0-----0---------------------|
B|--5-----0-----1-----3---------------------|
G|--0-----0-----0-----0---------------------|
D|--5-----4-----2-----4---------------------|
A|--3-----5-----3-----5---------------------|
E|--0-----x-----x-----x---------------------|


Next:

e|--------------------------------------|
B|--------------------------------------|
G|--7/9--7------7/9--7------------------|
D|-----------9-----------9--7-----------|
A|--------------------------------------|
E|--------------------------------------|


Next @ 1:13 ("the great king banished..")

e|----------------------------------------|
B|----------------------------------------|
G|--9-9-11-11-12-12-14-14-16-16-17-17-19--|
D|----------------------------------------|
A|----------------------------------------|
E|----------------------------------------|

e|----------------------------------------|          X2
B|----------------------------------------|
G|-19-19-17-17-16-16-14-14-12---11--------|
D|----------------------------------------|
A|----------------------------------------|
E|----------------------------------------|

or if it's hard to reach the 19th fret on acoustic, play this:

e|--------------------------------------|
B|-5-5-7-7-8-8-10-10-12-12-13-13-15-----|
G|--------------------------------------|
D|--------------------------------------|
A|--------------------------------------|
E|--------------------------------------|
                                                      X2
e|--------------------------------------|
B|-15-15-13-13-12-12-10-8---7-----------|
G|--------------------------------------|
D|--------------------------------------|
A|--------------------------------------|
E|--------------------------------------|

it ends the same as the intro, and finishes on this chord

e|---0---|
B|---0---|
G|---0---|
D|---4---|
A|---2---|
E|---0---|


This took quite a bit of work, and I hope you enjoy playing it. 





Comments


Popular La Dispute tabs & chords
Harder Harmonies Bass Tabs
Eight Chords
Last Blues Chords
Andria 1 Tabs
Fall Down Never Get Back Up Again Tabs
Future Wars Tabs
King Park 1 Tabs
Six Tabs
Such Small Hands Intro Tabs
Twas The Night Before Christmas Tabs


Song lyrics



↑ Back to top | Tablatures and chords are parodies/interpretations of the original songs. You may use it for private study, scholarship, research or language learning purposes only
© 2014 AZChords.com Contact us | Privacy policy | DMCA | Add/correct tabs | Request tabs | Top 50 tabs