» » »

La Dispute, Fairmount Tabs (ver.1)

Artists:  A B C D E F G H I J K L M N O P Q R S T U V W X Y Z # 

Fairmount Tabs (ver.1)

La Dispute Tabs
Rating:
5/5 (1 vote)
Fairmount lessons Tabs too difficult? Try these video lessons and learn fast
                Great track. Fun and easy song to play. With practice, you'll have it down in no time.

Intro:

E|----------0~-----|
B|----------6~-----|
G|----------7~-----|
D|-0~--------------|
A|-0~--------------|
D|-0~--------------|

E|----------0~--------|
B|----------6~---6----|
G|----------7~----7---|
D|-0~--------------7--|
A|-0~-----------------|
D|-0~-----------------|

E|-------0~-------|
B|-------5~--6s5--|
G|-------5~-----5-|
D|-3~-------------|
A|-3~-------------|
D|-3~-------------|

E|----------0~-----|
B|----------6~-----|
G|----------7~-----|
D|-0~--------------|
A|-0~--------------|
D|-0~--------------| x3

E|-------0~-------|
B|-------5~--6s5--|
G|-------5~-----5-|
D|-3~-------------|
A|-3~-------------|
D|-3~-------------|

E|----------0~--------|
B|----------6~--------|
G|----------7~--------|
D|-0~-----------------|
A|-0~-----------------|
D|-0~-------------0~--|




Figure 1:

E|----------------------------|
B|----------------------------|
G|----------------------------|
D|----------------------------|
A|--8p7p8p7p8p7p108p7p8p8p7---|
D|----------------------------| x3

E|----------------------------|
B|----------------------------|
G|----------------------------|
D|----------------------------|
A|--8p7p8p7p8p7p12p10p8p7p8p7-|
D|----------------------------|



Harmonies:

E|--------------------------|
B|--------------------------|
G|--------------------------|
D|-7p5p7p5p7p5p8p7p5p7p7p5--|
A|--------------------------|
D|--------------------------| x3

E|--------------------------|
B|--------------------------|
G|--------------------------|
D|-7p5p7p5p7p5p10p8p7p5p7p5-|
A|--------------------------|
D|--------------------------|



Figure 2:

E|--------------------------|
B|--------------------------|
G|--------------------------|
D|-777755777755777755777755-|
A|-888877888877888877888877-|
D|--------------------------|

E|---------------------------------|
B|---------------------------------|
G|---------------------------------|
D|-777755777755777p5p7p5p8p7p5p77--|
A|---------------------------------|
D|---------------------------------|




Figure 3:

E|-3333333333--------------------------------------------------|
B|-5555555555--------------------------------------------------|
G|-5555555555-------------12-141414-12-----------12-151515-14--|
D|-3333333333--------------x--x-x-x--x------------x--x-x-x--x--|
A|-3333333333----000-000--10/121212-10--000-000--10/131313-12--|
D|-3333333333----000-000----------------000-000----------------| x4

E|-----------------------------------------------|
B|-----------------------------------------------|
G|-----------12-141414-12-----------12-17-15-14--|
D|------------x--x-x-x--x------------x--x--x--x--|
A|--000-000--10/121212-10--000-000--10/15-13-12--|
D|--000-000----------------000-000---------------|


Figure 4:
(Bass)

At 2:57:
E|-----------------------------------------------------------------------|
B|-----------------------------------------------------------------------|
G|-7777777777777777/999999999999999/1010101010101010-121212-101010-99-10-|
D|-xxxxxxxxxxxxxxxx/xxxxxxxxxxxxxxx/xxxxxxxxxxxxxxxx-xxxxxx-x-x-x--xx-x--|
A|-5555555555555555/777777777777777/8888888888888888-101010\8-8-8-\77\8--|
D|-----------------------------------------------------------------------| x2


Figure 5:
E|---------------|
B|---------------|
G|---------------|
D|-0-00000-0~~~--|
A|-0-00000-0~~~--|
D|-0-00000-0~~~--| x4

E|---------------------------------------------------------------------|
B|---------------------------------------------------------------------|
G|-7777777777777777~/999999999999999~/1010101010101010~12121212121212~-|
D|-xxxxxxxxxxxxxxxx~/xxxxxxxxxxxxxxx~/xxxxxxxxxxxxxxxx~xxxxxxxxxxxxxx~-|
A|-5555555555555555~/777777777777777~/8888888888888888~10101010101010~-|
D|---------------------------------------------------------------------| x2

E|-----------|
B|-----------|
G|-----------|
D|-0-0000-0--|
A|-0-0000-0--|
D|-0-0000-0--| x2

E|-----------|
B|-----------|
G|-----------|
D|-3-3333-3--|
A|-3-3333-3--|
D|-3-3333-3--| x2



Figure 6:

E|---------------------------------------|
B|---------------------------------------|
G|-7h9-------------7h9--------10p8-------|
D|-----7h8-----8-------7h8-5-------12\8--|
A|---------5h6---------------------------|
D|---------------------------------------| x6

E|----------------------------------------------|
B|-10-1010p8-10-1010p8-10-1010p8-101010h11p10p8-|
G|----------------------------------------------|
D|----------------------------------------------|
A|----------------------------------------------|
D|----------------------------------------------| 



Figure 7:
E|----------------------------------------------------------------------|
B|----------------------------------------------------------------------|
G|---------777777----------10/999999----------777777-----------10/9-99--|
D|-750-750-xxxxxx--750-750--x/xxxxxx----------xxxxxx-----------x/-x-xx--|
A|-750-750-555555--750-750--8/777777--750-750-555555--750-750--8/-7-77--|
D|-750-750---------750-750------------750-750---------750-750-----------| x3

E|----------------------------------------------------------------|
B|----------------------------------------------------------------|
G|------------------------------------------------------------15b-|
D|-0-00-0-00-0-00-0-00-0-00-0-00-0-00-0-00-000000000000000000--x--|
A|-0-00-0-00-0-00-0-00-0-00-0-00-0-00-0-00-000000000000000000-13b-|
D|-0-00-0-00-0-00-0-00-0-00-0-00-0-00-0-00-000000000000000000-----|



Figure 8:

Ending:
E|------------------------------------------------|
B|------------------------------------------------|
G|-----------12-141414-12-----------12-151515-14--|
D|------------x--x-x-x--x------------x--x-x-x--x--|
A|--000-000--10/121212-10--000-000--10/131313-12--|
D|--000-000----------------000-000----------------|

E|------------------------------------------------|
B|------------------------------------------------|
G|-----------12-141414-12-----------12-151515-14--|
D|------------x--x-x-x--x------------x--x-x-x--x--|
A|--000-000--10/121212-10--000-000--10/131313-12--|
D|--000-000----------------000-000----------------|


Enjoy guys !
            

comments powered by Disqus
↑ Back to top | La Dispute Tabs for Fairmount. Lyrics for acoustic guitar and electric guitar. Tablatures and chords are parodies/interpretations of the original songs. You may use it for private study, scholarship, research or language learning purposes only