>
 >
Edit Your Hometown

Edit Your Hometown Guitar Tabs

La Dispute - Edit Your Hometown chords, tabs, tablatures, lyrics

Guitar lessons | Add/correct | Request | Top 50 tabs Artists:  A B C D E F G H I J K L M N O P Q R S T U V W X Y Z 0-9

Edit Your Hometown Guitar Tabs – La Dispute

CD, Sheet music, Poster

Do you like Edit Your Hometown? Share with your friends now
Tabs
-----------------------------------------------------------------------------
-----------------------------------------------------------------------------



Tuning: Standard



Figure 1:       ( x2 )

E|-------------------------------------------------------------------------|
B|-------------------------------------------------------------------------|
G|---------------------------------999-------------------------------------|
D|---------------------------------xxx-------------------------------------|
A|--5-55-555-555-444-5-55-555-555-/777-4-44-444-444-44--5-55-555-7-77-777--|
E|--7-77-777-777-555-2-22-222-222------5-55-555-555-55--7-77-777-0-00-000--| 


Figure 2:

E|-------------------------------------------------------------------------|
B|-------------------------------------------------------------------------|
G|---------------------------------999-------------------------------------|
D|---------------------------------xxx------------------5-55-555-4-44-444--|
A|--5-55-555-555-444-5-55-555-555-/777-4-44-444-444-44--5-55-555-4-44-444--|
E|--7-77-777-777-555-2-22-222-222------5-55-555-555-55--3-33-333-2-22-222--|

E|----------------------------------------------------------xxx------------|
B|----------------------------------------------------------xxx------------|
G|---------------------------------999----------------------xxx------------|
D|---------------------------------xxx------------------5-5-xxx--4-4-------|
A|--5-55-555-555-444-5-55-555-555-/777-4-44-444-444-44--5-5-xxx--4-4-------|
E|--7-77-777-777-555-2-22-222-222------5-55-555-555-55--3-3-xxx--2-2-------|


Figure 3:

E|---------------------------------------------------------|
B|---------------------------------------------------------|
G|---------------------------------------------------------|
D|--5-5-5-5-5-5-5-5-5-5-5-5-5--9-9-9-9-9-9-9-9-9-9-9-9-9---|
A|--5-5-5-5-5-5-5-5-5-5-5-5-5--9-9-9-9-9-9-9-9-9-9-9-9-9---|
E|--3-3-3-3-3-3-3-3-3-3-3-3-3--7-7-7-7-7-7-7-7-7-7-7-7-7---|

E|---------------------------------------------------------|
B|---------------------------------------------------------|
G|---------------------------------------------------------|
D|--5-5-5-5-5-5-5-5-5-5-5-5-5------------------------------|
A|--5-5-5-5-5-5-5-5-5-5-5-5-5--4-4-4-4-4-4-4-4-4-4-4-4-4---|
E|--3-3-3-3-3-3-3-3-3-3-3-3-3--5-5-5-5-5-5-5-5-5-5-5-5-5---|

E|------------------------------|
B|------------------------------|
G|------------------------------|
D|------------------------------|
A|--5-5-5-5-5-5-5-5-5-5-5-5-5---|
E|--7-7-7-7-7-7-7-7-7-7-7-7-7---|

E|-x-x-x-x-x--|
B|-x-x-x-x-x--|
G|-x-x-x-x-x--|
D|-x-x-x-x-x--|
A|-x-x-x-x-x--|
E|-x-x-x-x-x--|


Figure 4:       ( x2 )

E|-------------------------------------------------------------------------|
B|-------------------------------------------------------------------------|
G|---------------------------------999-------------------------------------|
D|---------------------------------xxx-------------------------------------|
A|--5-55-555-555-444-5-55-555-555-/777-4-44-444-444-44--5-55-555-7-77-777--|
E|--7-77-777-777-555-2-22-222-222------5-55-555-555-55--7-77-777-0-00-000--| 


Figure 5:

E|----------x-xx-x--xx-----------|
B|----------x-xx-x--xx----0~-----|
G|----------x-xx-x--xx----0~-----|
D|----------x-xx-x--xx-----------|
A|--5-55x---x-xx-x--xx-----------|
E|--7-77x---x-xx-x--xx-----------| 

E|---------------------------------------|
B|---------------------------------------|
G|---------------------------------------|
D|---------------------------------------|
A|---4-44-444-444-44--5-55-555-7-77-777--|
E|---5-55-555-555-55--7-77-777-0-00-000--|

E|-------------------------------------------------------------------------|
B|-----------------------------0~------------------------------------------|
G|-----------------------------0~------------------------------------------|
D|-------------------------------------------------------------------------|
A|--5-55-------------5-55--------------4-44-444-444-44--5-55-555-7-77-777--|
E|--7-77-------------2-22--------------5-55-555-555-55--7-77-777-0-00-000--|


Figure 6:

E|----------------------------x-xx-------|
B|----------------------------x-xx-------|
G|--7-77-777-777--666-4-4444--x-xx-------|
D|--x-xx-xxx-xxx--xxx-4-4444--x-xx-------|
A|--5-55-555-555--444-2-2222--x-xx-------|
E|--7-77-777-777-/555---------x-xx-------| 

E|---------------------------------------|
B|----------------555--------------------|
G|--7-77-777-777--666-4-4444-------------|
D|--x-xx-xxx-xxx--xxx-4-4444-------------|
A|--5-55-555-555--444-2-2222-------------|
E|--7-77-777-777--555--------------------|

Figure 7:

E|-----------------------------------------------------------|
B|------------------------------------0-0~-----------0-0~----|
G|------------------------------------7-6~-----------7-6~----|
D|--5-5-5-5-5-5-5-5-5-5-5-5-5-77--9/-------------9/----------|
A|--5-5-5-5-5-5-5-5-5-5-5-5-5-77--9/-------------9/----------|
E|--3-3-3-3-3-3-3-3-3-3-3-3-3/55--7/-------------7/----------| x2


Figure 8:

E|--------------------------------|
B|--------------------------------|
G|--------------------------------|
D|--5-5-5-5-5-5-5-5-5-5-5-5-5-77--|
A|--5-5-5-5-5-5-5-5-5-5-5-5-5-77--|
E|--3-3-3-3-3-3-3-3-3-3-3-3-3/55--| 

E|-------------------------------------------|
B|-------------------------------------------|
G|--12-12-12-12-12-12-12-12-12-12-12-12--14--|
D|---x--x--x--x--x--x--x--x--x--x--x--x---x--|
A|--10-10-10-10-10-10-10-10-10-10-10-10-/12--|
E|-------------------------------------------| 

E|-------------------------------------------|
B|-------------------------------------------|
G|--16-16-16-16-16-16-16-16-16-16-16-16--14--|
D|---x--x--x--x--x--x--x--x--x--x--x--x---x--|
A|--14-14-14-14-14-14-14-14-14-14-14-14-/12--|
E|-------------------------------------------| 


Figure 9:

E|-------------------------------------------------------------------------|
B|-------------------------------------------------------------------------|
G|---------------------------------999-------------------------------------|
D|---------------------------------xxx-------------------------------------|
A|--5-55-555-555-444-5-55-555-555-/777-4-44-444-444-44--5-55-555-7-77-777--|
E|--7-77-777-777-555-2-22-222-222------5-55-555-555-55--7-77-777-0-00-000--| 

E|------------------------------------------------------------------|
B|------------------------------------------------------------------|
G|---------------------------------999------------------------------|
D|---------------------------------xxx------------------------------|
A|--5-55-555-555-444-5-55-555-555-/777-4-44-444-444-44--5-5----7-7--|
E|--7-77-777-777-555-2-22-222-222------5-55-555-555-55--7-7----0-0--| 


End with:

E|--------|
B|--------|
G|--7~----|
D|--x~~---|
A|--5~----|
E|--7~----|





Comments


Popular La Dispute tabs & chords
How I Feel Bass Tabs
Eleven Tabs
Harder Harmonies Tabs
King Park 1 Tabs
Nine 1 Tabs
Only Everything Below Tabs
Shall Never Lose Its Power Tabs
St Paul Missionary Baptist Church Blues Tabs
Such Small Hands Tabs
The Most Beautiful Bitter Fruit Tabs


Song lyrics



↑ Back to top | Tablatures and chords are parodies/interpretations of the original songs. You may use it for private study, scholarship, research or language learning purposes only
© 2014 AZChords.com Contact us | Privacy policy | DMCA | Add/correct tabs | Request tabs | Top 50 tabs