» » »

La Dispute, A Letter Tabs (ver.1)

Artists:  A B C D E F G H I J K L M N O P Q R S T U V W X Y Z # 

A Letter Tabs (ver.1)

La Dispute Tabs
 Rating:
4.3/5 (6 votes)
A Letter lessons Tabs too difficult? Try these video lessons and learn fast
                (Intro)
-------------------------------------------------------------------------------
                             a Letter - La Dispute
-------------------------------------------------------------------------------

Tuning: Standard

e|---------------------------------------------------------------------------|
B|---------------------------------------------------------------------------|
G|------9-----------------9------------------------7-------------------------| repeat
D|----7----12-10/9--9/7-----------7/9--9~p7------7---------------------------|
A|--0----0--------------0-------7-----------7--8-----------------------------|
E|---------------------------------------------------------------------------|

@ :58

e|---------------------------------------------------------------------------|
B|---------------------------------------------------------------------------|
G|---------------------7-----------0-----------------------------------------|
D|----7/9--9~p7------7--------------------0----------------------------------|
A|--7-----------7--8-------------3------2------------------------------------|
E|-----------------------------1------3--------------------------------------|


e|---------------------------------------------------------------------------|
B|---------------------------------------------------------------------------|
G|---------------------------------------------------------------------------|
D|---------------------------------3--3-3-3-3-3-3----------------------------|
A|--3--3-3-3-3-3-0-5-5-5-5-5- x4 --3--3-3-3-3-3-3-2-2-2-2-2------------------|
E|--5--5-5-5-5-5-0-7-7-7-7-7-------1--1-1-1-1-1-1-3-3-3-3-3------------------|  


Guitar 2 @ :19 - 1:03

e|----------------------------------------------------|
B|----------------------------------------------------|
G|---9---9---9---9---9---9---9---9---7---9---9--------|
D|-7---7---7---7---7---7---7---7---7---7---7----------|
A|----------------------------------------------------|
E|----------------------------------------------------|


@ 1:22
e|----------------------------------------------------|
B|----------------------------------------------------|
G|---9---9---9---9---9---9---9---9---9---9---9--------|
D|-7---7---7---7---7---7---7---7---7---7---7----------|
A|----------------------------------------------------|
E|----------------------------------------------------|

This pretty much goes through the entire song
            
Submit corrections

comments powered by Disqus
↑ Back to top | La Dispute Tabs for A Letter. Lyrics for acoustic guitar and electric guitar. Tablatures and chords are parodies/interpretations of the original songs. You may use it for private study, scholarship, research or language learning purposes only