» » »

Lacuna Coil, Unspoken Bass tabs (ver.2)

Artists:  A B C D E F G H I J K L M N O P Q R S T U V W X Y Z # 

Unspoken Bass tabs (ver.2)

Lacuna Coil Tabs
 Rating:
4/5 (4 votes)
Unspoken lessons Tabs too difficult? Try these video lessons and learn fast
                Intro:
|----------------------|
|----------------------|
|------4-44--3-33-1-11-| 4x
|-1-11-----------------|
|----------------------|

Verse:
|-------------------|
|-------------------|
|---------------1---| 4x
|-1-1---------------|
|-----4---1-2-2-----|

|-------------------------------|
|-------------------------------|
|-----------------------1-1-1-1-| 3x
|-1-1-1-------------------------|
|-------4-4-4-4-1-2-2-2---------|

|------------------------------|
|------------------------------|
|-----------------1-(let ring)-|
|-1-1-1------------------------|
|-------4-4-4-2-2--------------|

Chorus = Intro 4x

Bridge:
|--------------|
|--------------|
|--------------|
|-1-(let ring)-|
|--------------|

Verse

Chorus 8x

Bassinterlude:
|---------------------------------------------|
|---------------------------------------------|
|-----------------------4-1--1-1--1-4-44-6-66-|
|-1--1-1--1-1-11-1-11-1-----------------------|
|---------------------------------------------|

|-------------------------------------------|
|-------------------------------------------|
|-----------------------4-1--1-3-3-4-4-6-66-|
|-1--1-1--1-1-11-1-11-1---------------------|
|-------------------------------------------|

Chorus 8x

End:
|--------------|
|--------------|
|--------------|
|-1-(let ring)-|
|--------------|
            
Submit corrections

comments powered by Disqus
↑ Back to top | Lacuna Coil Bass for Unspoken. Lyrics for acoustic guitar and electric guitar. Tablatures and chords are parodies/interpretations of the original songs. You may use it for private study, scholarship, research or language learning purposes only