» » »

Trip The Darkness Tabs (ver.1)

Artists:  A B C D E F G H I J K L M N O P Q R S T U V W X Y Z # 

Trip The Darkness Tabs (ver.1)

Lacuna Coil
Rating:
0/5 (0 votes)

Hard to play? Try these video lessons and learn fast.
                Ehh Mijos! okno, esta es una tablatura hecha por Ozzy, de la rola
Trip the Darkness de Lacuna Coil... Claro que es adaptacion
de oido, asi que si les gusta o no, o si tienen dudas, o
sugerencias, lo que sea, me lo hacen saber en twitter
@bloodycorp, mientras tanto pues disfruten esto...
TENDRAN QUE AFINARSE EN DROP D (Fa)

Lacuna Coil
Dark Adrenaline

[ / Slide    ]
[ . Palm Mute]



Intro:                                           Gtr. I
------------------------------ ------------------------|
------------------------------ ------------------------|
------------------------------ ------------------------|
------------------------------ ------------------------|
------------------------------ -------------------6-6--|
-8-10-10-10---8-10-11-10-8-10- -8-10-10-10---8-10------| x2
.............................. ........................

                                                Gtr. II
---------------------------- -------------------------|
-5-------9------10---------- -5-------9---------------|
-5-(x16)-9-(x16)-9--(x8)---- -5-(x16)-9-(x24)---------|
---------------------------- -------------------------|
---------------------------- -------------------------|
---------------------------- -------------------------| x2


Intro II:
                                              Gtr. I&II
------------------------------ ------------------------|
------------------------------ ------------------------|
------------------------------ -------------------8----|
-8-10-10-10---8-10-11-10-8-10- -8-10-10-10---8-10-8----|
-8-10-10-10- -8-10-11-10-8-10- -8-10-10-10---8-10-6----|
-8-10-10-10---8-10-11-10-8-10- -8-10-10-10---8-10------| x4


Verso:
                                              Gtr. I&II
------------------------------    ---------------------|
------------------------------    ---------------------|
--------------------8/--------    ---------------------|
-8-10-10-10---8-10--8/--------    -8-10-10-10---/15-15-|
-8-10-10-10---8-10--6/--------    -8-10-10-10---/13-13-|
-8-10-10-10---8-10------------ x3 -8-10-10-10----------| x4
..................                ...........

"What a Day..."


Pre-Coro:
                         Gtr.I                      Gtr. I&II
------------------------------  -----------------------------|
------------------------------  -----------------------------|
------------------------------  -----------------------------|
-555555-666666-888888-666666--  -555555-666666-888888-999999-|
-333333-444444-666666-444444--  -333333-444444-666666-777777-|
------------------------------  -333333-444444-666666-777777-|
..............................

"Come to me, Come to me"


Coro:
                                                Gtr. I&II
-----------------------------  --------------------------|
-----------------------------  --------------------------|
-55-5-5----------------------  --------------------------|
-55-5-5-------66-6-6--33-3-3-  -00-0--33-3--55-5--88-8-8-|
-33-3-3-------66-6-6--33-3-3-  -00-0--33-3--55-5--88-8-8-|
-55-5-5-(x2)--66-6-6--33-3-3-  -00-0--33-3--55-5--88-8-8-|

"Follow me, Follow me"

-----------------------------  ----------------------------------|
-----------------------------  ----------------------------------|
-55-5-5----------------------  ----------------------------------|
-55-5-5-------66-6-6--33-3-3-  -00-0--33-3--1-/3-3333--1-/3-3333-|
-33-3-3-------66-6-6--33-3-3-  -00-0--33-3--1-/3-3333--1-/3-3333-|
-55-5-5-(x2)--66-6-6--33-3-3-  -00-0--33-3--1-/3-3333--1-/3-3333-|

                                "Just in Time"


Intro II (si, se repite):
                                              Gtr. I&II
------------------------------ ------------------------|
------------------------------ ------------------------|
------------------------------ -------------------8----|
-8-10-10-10---8-10-11-10-8-10- -8-10-10-10---8-10-8----|
-8-10-10-10- -8-10-11-10-8-10- -8-10-10-10---8-10-6----|
-8-10-10-10---8-10-11-10-8-10- -8-10-10-10---8-10------| x2


Verso:
                                              Gtr. I&II
------------------------------    ---------------------|
------------------------------    ---------------------|
--------------------8/--------    ---------------------|
-8-10-10-10---8-10--8/--------    -8-10-10-10---/15-15-|
-8-10-10-10---8-10--6/--------    -8-10-10-10---/13-13-|
-8-10-10-10---8-10------------ x3 -8-10-10-10----------| x4
..................                ...........

"What a Day..."


Pre-Coro:
                         Gtr.I                      Gtr. I&II
------------------------------  -----------------------------|
------------------------------  -----------------------------|
------------------------------  -----------------------------|
-555555-666666-888888-666666--  -555555-666666-888888-999999-|
-333333-444444-666666-444444--  -333333-444444-666666-777777-|
------------------------------  -333333-444444-666666-777777-|
..............................

"Come to me, Come to me"


Coro:
                                                Gtr. I&II
-----------------------------  --------------------------|
-----------------------------  --------------------------|
-55-5-5----------------------  --------------------------|
-55-5-5-------66-6-6--33-3-3-  -00-0--33-3--55-5--88-8-8-|
-33-3-3-------66-6-6--33-3-3-  -00-0--33-3--55-5--88-8-8-|
-55-5-5-(x2)--66-6-6--33-3-3-  -00-0--33-3--55-5--88-8-8-|

"Follow me, Follow me"

-----------------------------  ----------------------------------|
-----------------------------  ----------------------------------|
-55-5-5----------------------  ----------------------------------|
-55-5-5-------66-6-6--33-3-3-  -00-0--33-3--1-/3-3333--1-/3-3333-|
-33-3-3-------66-6-6--33-3-3-  -00-0--33-3--1-/3-3333--1-/3-3333-|
-55-5-5-(x2)--66-6-6--33-3-3-  -00-0--33-3--1-/3-3333--1-/3-3333-|

                                "Just in Time"


___________________________________________________________________
[Intermedio Silencioso 1:50-2:15]
___________________________________________________________________

Coro:
                                                Gtr. I&II
-----------------------------  --------------------------|
-----------------------------  --------------------------|
-55-5-5----------------------  --------------------------|
-55-5-5-------66-6-6--33-3-3-  -00-0--33-3--55-5--88-8-8-|
-33-3-3-------66-6-6--33-3-3-  -00-0--33-3--55-5--88-8-8-|
-55-5-5-(x2)--66-6-6--33-3-3-  -00-0--33-3--55-5--88-8-8-|

"Follow me, Follow me"

-----------------------------  ----------------------------------|
-----------------------------  ----------------------------------|
-55-5-5----------------------  ----------------------------------|
-55-5-5-------66-6-6--33-3-3-  -00-0--33-3--1-/3-3333--1-/3-3333-|
-33-3-3-------66-6-6--33-3-3-  -00-0--33-3--1-/3-3333--1-/3-3333-|
-55-5-5-(x2)--66-6-6--33-3-3-  -00-0--33-3--1-/3-3333--1-/3-3333-|

Coro:
                                                Gtr. I&II
-----------------------------  --------------------------|
-----------------------------  --------------------------|
-55-5-5----------------------  --------------------------|
-55-5-5-------66-6-6--33-3-3-  -00-0--33-3--55-5--88-8-8-|
-33-3-3-------66-6-6--33-3-3-  -00-0--33-3--55-5--88-8-8-|
-55-5-5-(x2)--66-6-6--33-3-3-  -00-0--33-3--55-5--88-8-8-|

"Follow me, Follow me"

-----------------------------  ----------------------------------|
-----------------------------  ----------------------------------|
-55-5-5----------------------  ----------------------------------|
-55-5-5-------66-6-6--33-3-3-  -00-0--33-3--1-/3-3333--1-/3-3333-|
-33-3-3-------66-6-6--33-3-3-  -00-0--33-3--1-/3-3333--1-/3-3333-|
-55-5-5-(x2)--66-6-6--33-3-3-  -00-0--33-3--1-/3-3333--1-/3-3333-|


------------------------------ ------------------------|
------------------------------ ------------------------|
------------------------------ ------------------------|
------------------------------ ------------------------|
------------------------------ -------------------6-6--|
-8-10-10-10---8-10-11-10-8-10- -8-10-10-10---8-10------| x2
.............................. ........................

                                                Gtr. II
---------------------------- -------------------------|
-5-------9------10---------- -5-------9---------------|
-5-(x16)-9-(x16)-9--(x8)---- -5-(x16)-9-(x24)---------|
---------------------------- -------------------------|
---------------------------- -------------------------|
---------------------------- -------------------------| x2


End.
________________________________________________________________________________
            
Hard to play? Try these video lessons and learn fast. | Correct




comments powered by Disqus
↑ Back to top | Tablatures and chords are parodies/interpretations of the original songs. You may use it for private study, scholarship, research or language learning purposes only