» » »

To Myself I Turned Tabs (ver.2)

Artists:  A B C D E F G H I J K L M N O P Q R S T U V W X Y Z # 

To Myself I Turned Tabs (ver.2)

Lacuna Coil
Rating:
0/5 (0 votes)

Hard to play? Try these video lessons and learn fast.
                "To Myself I Turned"
Taken from Lacuna Coil's In A Reverie 1999

I think most of this is right. There are a few parts
that are really quiet and hard to hear so ive written
my best guess. 

Tuning : E A D G B E 	

 Verse:       

|--------------------------------|
|----3-------3-------3-------3/4-|
|0-------0-------0-------0-------|
|--------------------------------|
|--------------------------------|
|--------------------------------|

                             *       
|2-------2-----------------------|
|----4-------4---3---1-----------|
|2-------2---------------3---2---|
|----------------0---------------|
|--------------------------------|
|--------------------------------|
   *I think Gtr. 2 may play the C
    on the first fret instead. 


 Intro Solo:       

|3-------3/--5-------------------|
|--------------------------------|
|--------------------5---3---5---|
|--------------------------------|
|--------------------------------|
|--------------------------------|

         
|--------------------------------|
|--------------------------------|
|5/7---3---2-3/5-5---2-3-2-0-----|
|--------------------------------|
|--------------------------------|
|--------------------------------|

        
|3-5/6-5---6-6/8-6-5-3---3/5-3/5-|
|--------------------------------|
|--------------------------------|
|--------------------------------|
|--------------------------------|
|--------------------------------|

       
|5/6-5-6p5p3---------------------|
|--------------------------------|
|--------------------------------|
|--------------------------------|
|--------------------------------|
|--------------------------------|

 Pre-Chorus:        

|------6-------6---------8-------|
|7/8---8---8---8---8/10--10--10--|
|7/8-------8-------8/10------10--|
|--------------------------------|
|--------------------------------|
|--------------------------------|

        
|8---------5-------5-----5---5-8-|
|10--5/7---7---7---7-------7-----|
|----5/7-------7-------7---------|
|--------------------------------|
|--------------------------------|
|--------------------------------|

         
|--5---------6-------6---------8-|
|7---7-7/8---8---8---8---8/10--10|
|------7/8-------8-------8/10----|
|--------------------------------|
|--------------------------------|
|--------------------------------|

         
|----8---------10------10--------|
|10--10--1012--12--12--12--------|
|10------1012------12------------|
|--------------------------------|
|--------------------------------|
|--------------------------------|

         
|--1010101010101010--------------|
|--1212121212121212--------------|
|--1212121212121212--------------|
|--------------------------------|
|--------------------------------|
|--------------------------------|

  These are the chords to the chorus.
  You can figure out the srumming
  pattern yourself.

 Chorus:

 Gm  F  Bsus2  Csus2 Asus2   D
|3---1---2-------3---0-------2---|
|3---1---2-------3---0-------3---|
|3---2---4-------5---2-------2---|
|5---3---4-------5---2-------0---|
|5---3---2-------3---0-----------|
|3---1---2-------3---------------|


 Bridge Part:      

|--------------------------------|
|--------------------------------|
|7-7-7-8-7h8p7-5-7---------------|
|0-0-0-0-0-----0-0---------------|
|--------------------------------|
|--------------------------------|
  Gtr. 2 plays Gm over this part.
            
Hard to play? Try these video lessons and learn fast. | Correct




comments powered by Disqus
↑ Back to top | Tablatures and chords are parodies/interpretations of the original songs. You may use it for private study, scholarship, research or language learning purposes only