» » »

Lacuna Coil, To Myself I Turned Tabs (ver.1)

Artists:  A B C D E F G H I J K L M N O P Q R S T U V W X Y Z # 

To Myself I Turned Tabs (ver.1)

Lacuna Coil Tabs
Rating:
0/5 (0 votes)
Hard to play? Try these video lessons and learn fast.
                Intro and verses (fingerpicked) :

Guitar 1 plays the riff over and over,
while Guitar 2 does the lead.
timing of Guitar 2 goes with the Guitar 1 riff :

Guitar 1 :
e|-------------------------------------|
b|---3---3---3---3---4---4--/3---------|
g|-0---0---0---0---0---0-------5--3--2-|
d|-------------------------------------|
a|-------------------------------------|
e|-------------------------------------|

Guitar 2 :
e|-3~~~--3~~--3/5--2~~~----------------|
b|-------------------------------------|
g|-----------------------------5--3--2-|
d|-----------------------------7--5--4-|
a|-------------------------------------|
e|-------------------------------------|

e|-------------------------------------|
b|-------------------------------------|
g|--7~~~-/-3~~~-2-3/5--5~~~~---5--3--2-|
d|-----------------------------7--5--4-|
a|-------------------------------------|
e|-------------------------------------|

e|---3--5--6--5~~~--6--6/8~~~--6--5----|
b|-------------------------------------|
g|-------------------------------------|
d|-------------------------------------|
a|-------------------------------------|
e|-------------------------------------|

e|-3~~--3~~--3/5--2--3--5~~-/6--5--6p5-|
b|-------------------------------------|
g|-------------------------------------|
d|-------------------------------------|
a|-------------------------------------|
e|-------------------------------------|

e|-3~~~~~~~~~~~~-(let ring)------------|
b|-------------------------------------|
g|-------------------------------------|
d|-------------------------------------|
a|-------------------------------------|
e|-------------------------------------|

after this, the vocals come in, and only
Guitar 1 plays until the pre-chorus.

Pre-Chorus : (0:48)

e|-----3---3----5---5----2---2---2--8---6-|
b|--/4---4---/6---6---/3---3---3------8---|
g|----------------------------------------|
d|----------------------------------------|
a|----------------------------------------|
e|----------------------------------------|

e|-----3---3----5---5----2---2---2---2~~~-|
b|--/4---4---/6---6---/3---3---3---3------|
g|----------------------------------------|
d|----------------------------------------|
a|----------------------------------------|
e|----------------------------------------|

Chorus : (1:00) (play this riff twice)

e|--3-----3-----2--------3-----5-----5-|
b|--3-----3-----2--------3-----5-----5-|
g|--3-----5-----4--------5-----5-----5-|
d|--5-----5-----4--------5-----7-----7-|
a|--5-----3-----2--------3-----7-----7-|
e|--3-----3-----2--------3-----5-----5-|
  Ooooooooooooooh...  I'm the... ...land

Post-Chorus : (1:24) (play 4 times)

e|--------------------------|
b|--------------------------|
g|------7---8--7h8p7--5--7--|
d|--5-5---5-----------------|
a|--------------------------|
e|--------------------------|

at (1:30) it goes back to the verse,
then the pre-chorus again,
then the chorus riff again 4 times,
then the pre-chorus again,
then the chorus riff again 4 times,
then the post-chorus again,
and end on 

Guitar 1 :
e|-----|
b|-----|
g|-----|
d|--5--|
a|-----|
e|-----|

Guitar 2 : (distorted)
e|-----|
b|-----|
g|-----|
d|--5--|
a|--5--|
e|--3--|
            

comments powered by Disqus
↑ Back to top | Lacuna Coil Tabs for To Myself I Turned. Lyrics for acoustic guitar and electric guitar. Tablatures and chords are parodies/interpretations of the original songs. You may use it for private study, scholarship, research or language learning purposes only