» » »

The Ghost Woman And The Hunter Bass tabs (ver.1)

Artists:  A B C D E F G H I J K L M N O P Q R S T U V W X Y Z # 

The Ghost Woman And The Hunter Bass tabs (ver.1)

Lacuna Coil
Rating:
0/5 (0 votes)

Hard to play? Try these video lessons and learn fast.
                There are some tricky slides in the verses of this song
(one of those you need to listen too) Every note within slides 
up/down from the previous
I'm not sure how to type the longer slides in so for the
records > is slide up and < is slide down

G------------------------5>10--9>---14---------
D--3>12--<-7--5-----------------------------7--
A----------------------------------------------------
E----------------------------------------------------
B----------------------------------------------------
verses

G-----------------------------------------
D-----------------------------------------
A--1--------------------------------------
E--------------0----------------------1--
B--------1----------3----1----0--------
chorus
for the break at @3:00 just play the chorus softly

song order:
verse riff X2
chorus X2
verse riff X2
chorus X2
break (soft chorus) X4
chorus X2
            
Hard to play? Try these video lessons and learn fast. | Correct




comments powered by Disqus
↑ Back to top | Tablatures and chords are parodies/interpretations of the original songs. You may use it for private study, scholarship, research or language learning purposes only