» » »

Lacuna Coil, The Ghost Woman And The Hunter Tabs (ver.1)

Artists:  A B C D E F G H I J K L M N O P Q R S T U V W X Y Z # 

The Ghost Woman And The Hunter Tabs (ver.1)

Lacuna Coil Tabs
 Rating:
4/5 (4 votes)
The Ghost Woman And The Hunter lessons Tabs too difficult? Try these video lessons and learn fast
                Riff A
e|-------------------------------------------------|
B|-------------------------------------------------|
G|-----9-------------------------------------------|
D|------------12------10--------9------7--------7--|
A|---0----0-------0---------0------0-------0-------|
E|-------------------------------------------------|

 Riff B
e|-------------------------------------------------|
B|-------------------------------------------------|
G|----9--------------------------------------------|
D|----------12------10------9-------10-------10----|
A|--0---0-------0-------0-------0--------0---------|
E|-------------------------------------------------|


 Riff C
e|-------------------------------------------------|
B|-------------------------------------------------|
G|----9------------------------------7--------7----|
D|----------12------10------9----------------------|
A|--0---0-------0-------0-------0--------0---------|
E|-------------------------------------------------|

   (starts at 0:15)
1. Riff A
2. Riff B
3. Riff A
4. Riff C
5. Riff A (keep playing Riff A)

6. here comes the heavy part (someone help me with this!)

7. after that repeat Riff A several times 

It's simple ok

P.D. this is my very first tab please pardon me
            
Submit corrections

comments powered by Disqus
↑ Back to top | Lacuna Coil Tabs for The Ghost Woman And The Hunter. Lyrics for acoustic guitar and electric guitar. Tablatures and chords are parodies/interpretations of the original songs. You may use it for private study, scholarship, research or language learning purposes only