» » »

Lacuna Coil, Swamped Tabs (ver.3)

Artists:  A B C D E F G H I J K L M N O P Q R S T U V W X Y Z # 

Swamped Tabs (ver.3)

Lacuna Coil Tabs
 Rating:
4/5 (4 votes)
Swamped lessons Tabs too difficult? Try these video lessons and learn fast
                Track:"Swamped"

Tuning Drop D DADgbe



Maus and Chris have 7string guitars. I don't know, if they recordet this track on a 7string. I dont have one, so I tabbed it for a 6string.


[INTRO]

that's the verse reversed, and a 2nd guitar plays something on the 2nd fret on the deep D string (that's a E)
If you have a sound or a music editing program, try to reverse the intro, than you can hear it.

So I don't think that it makes sense to tab this part.


[BRIDGE]

				X4		       	          
e|--------------------------------||
b|--------------------------------||
g|--------------------------------||  
D|--2------3-2------2-2-3-2-------||
A|--2--22--3-2--22--2-2-3-2--222--||
D|--2--22--3-2--22--2-2-3-2--222--||
P.M.   ..       ..           ...              
 
[INTERLUDE]

e|------||
b|------||
g|------||
D|--2~--||
A|--2~--||
D|--2~--||

fades out into the verse, played with the thirst beat of the verse


[VERSE]

e|----------------------------------------------------------------------||
b|----------------------------------------------------------------------||
g|----------------------------------------------------------------------|| 
D|----------------------------------------------------------------------||
A|--7--7-7-\5-5--/8-8-8-8--8\7-7---7--7-7-\5-5--/11-11-11-11--11h12-11--||
D|----------------------------------------------------------------------||

[CHORUS]


Guitar 1
e|---------------------||
b|---------------------||
g|--9----5----7----9---||   X2
D|--9----5----7----9---||
A|--7----3----5----7---||
D|---------------------||

Guitar 2  plays more at the chorus, but this part was all that I could hear, cause it's so quiet (sorry)
e|-------------||
b|-------------||
g|-------------||  X2
D|-----7h9-9---||
A|---7---------||
D|-------------||


[BRIDGE2]

Guitar 1 (the quiet one in the middle)

e|-----------------------------------------------------------------------------------------||
b|-----------------------------------------------------------------------------------------||
g|-----------------------------------------------------------------------------------------||
D|-------2h3-3-2-----2h3---------2h3-3-2-----2h3---------2h3-3-2-----2h3---------2h3-3-2---||
A|---22--2h3-3-2--22-2h3-222222--2h3-3-2--22-2h3-222222--2h3-3-2--22-2h3-222222--2h3-3-2---||
D|---22--2h3-3-2--22-2h3-222222--2h3-3-2--22-2h3-222222--2h3-3-2--22-2h3-222222--2h3-3-2---||
P.M. ..           ..     ......           ..     ......           ..     ......

Guitar 2
D|-------------------------2---------------------2-2-----------------------2-----------2---||
A|---22--------%-----------2----------%----------2-2-----------%-----------2-----%-----2---||
D|---22--------------------2---------------------2-2-----------------------2-----------2---||
P.M  ..


[OUTRO]

e|-------||
b|-------||
g|-------|| played with thirst beat of the Intro
D|--2~---||
A|-------||
D|-------||


ORDER:

INTRO
BRIDGE X2
INTERLUDE / VERSE
VERSE X4
CHORUS
BRIDGE
INTERLUDE / VERSE X4
CHORUS X2
BRIDGE X2
BRIDGE 2
CHORUS X2
OUTRO / INTRO



thnx Mago
            
Submit corrections

comments powered by Disqus
↑ Back to top | Lacuna Coil Tabs for Swamped. Lyrics for acoustic guitar and electric guitar. Tablatures and chords are parodies/interpretations of the original songs. You may use it for private study, scholarship, research or language learning purposes only